» » »

Minsan Tabs (ver.6)

Artists:  A B C D E F G H I J K L M N O P Q R S T U V W X Y Z # 

Minsan Tabs (ver.6)

Eraserheads
Rating:
0/5 (0 votes)
Tabs too difficult? Try these video lessons and learn fast.
                

-------------------------------------------------------------------------------
                             MINSAN - ERASERHEADS
-------------------------------------------------------------------------------






ITo po ay yung mahabang parte ng kanta...
Kung saan si Marcus lamang po ang tumutugtog...


pagkatapos po ito ng "minsan tayo ay naging tunay na...magkaibigan..."
(with or without distortion kht po sa acoustic guitar pwede)

e|-----------------------------------------------------------------|
B|-----------------------------------------------------------------|
G|-----------------------------------------------------------------|
D|---------------4--------------------------------4-5/7-5----------|
A|-1/5-----5-7-5---5-----------------------------------------------|
E|-------------------7/2-2--5-7/8-8--8-8-8-8-7-5-3-----------------|

e|-----------------------------------------------------------------|
B|-----------------------------------------------------------------|
G|---------------------------------12-13-12-10---------------------|
D|-5-7-7/8--8-10-10/12-12-12-14-12-------------12------------------|
A|-----------------------------------------------------------------|
E|-----------------------------------------------------------------|

e|-----------------------------------------------------------------|
B|------11-11/12--12/11-12/14--12-11-------------------------------|
G|----14------------------------------13-10------------------------|
D|-12----------------------------------------12-11-9-7-------------|
A|-----------------------------------------------------------------|
E|-----------------------------------------------------------------|


This is the "highier-pitch part"

e|-15----------15----16----------16----15----------15--------------|
B|----15-12-15----------16-13-16----------15-12-15-----------------|
G|-----------------------------------------------------------------|
D|-----------------------------------------------------------------|
A|-----------------------------------------------------------------|
E|-----------------------------------------------------------------|

e|-16----------16-13-13/15--15-15/13-13-11-10---13--11/10-11-----------------|
B|----16-13-13------------------------------------------------13--11/10-11---|
G|---------------------------------------------------------------------------|
D|---------------------------------------------------------------------------|
A|---------------------------------------------------------------------------|
E|---------------------------------------------------------------------------|
            
Tabs too difficult? Try these video lessons and learn fast.


comments powered by Disqus
↑ Back to top | Tablatures and chords are parodies/interpretations of the original songs. You may use it for private study, scholarship, research or language learning purposes only