>
 >
Magasin 2

Magasin 2 Bass Tabs

Eraserheads - Magasin 2 chords, tabs, tablatures, lyrics

Guitar lessons | Add/correct | Request | Top 50 tabs Artists:  A B C D E F G H I J K L M N O P Q R S T U V W X Y Z 0-9

Magasin 2 Bass Tabs – Eraserheads

CD, Sheet music, Poster

Do you like Magasin 2? Share with your friends now
Bass TabsBass Tabs v2Bass Tabs v3Bass Tabs v4Bass Tabs v5Bass Tabs v6ChordsChords v2Chords v3Chords v4TabsTabs v2Tabs v3Ukulele
Intro:

Ooooohhhhhhhhhh.
G|-----------------|-----------------|-----------------|-----|
D|-----------------|-----------------|-----------------|-----|
A|-----------------|-66666-6-66666-6-|-----------------|-----|
E|-77777-7-77777-7-|-----------------|-44444-4-44444-4-|-0~~~|

Verse:
Nakita kita sa isang magasin…
Sa tindahan sa may…

(Guitar or bass can do this)
G|-------|-----6-|-------|-----9-|
D|-----9-|---8---|-----6-|---9---|
A|---9---|-6-----|---6---|-7-----|
E|-7-----|-------|-4-----|-------|

G|-------|-----6-|-------|------|--------------|
D|-----9-|---8---|-----6-|------|--------------|
A|---9---|-6-----|---6---|-7~~~-|-6h7-6--------|
E|-7-----|-------|-4-----|------|-------7-2/12-|

(Pasok bass)
G|--------------|
D|--------------|
A|-6h7-6--------|
E|-------7-2/12-|

Naalala mo pa ba…
G|------------------|----------------------------|
D|------------------|----------------------------|
A|------------------|--(fret eleven--------------|
E|-777-777-777-7-7/-|-111111-111111-111111-11-11-|

G|------------------|----------------------------|
D|------------------|----------------------------|
A|------------------|----------------------------|
E|-444-444-444-4-4/-|-000-000-000-0-0/-----------|

Tinawanan pa kita…
G|------------------|-----------------------------|
D|------------------|-----------------------------|
A|------------------|--(fret eleven)--------------|
E|-777-777-777-7-7/-|-111111-111111-111111-11-11\-|

G|-------------------|-----------------|----------------------|
D|-------------------|-----------------|----------------------|
A|-------------------|-777-7-7-777-7-7-|-777-7-7-7-9/10-9-7---|
9E|-444-444-444-4-4/-|-----------------|--------------------9-|

Chorus:

Iba na ang yong ngiti…
G|-------------|-------------|-------------|-------------|
D|-------------|-------------|-------------|-------------|
A|-------------|-666-66666-6-|-------------|-------------|
E|-777-77777-7-|-------------|-444-44444-4-|-000-00000-0-|

Sana’y hindi nakita…
G|-------------|-------------|-------------|--------------|
D|-------------|-------------|-------------|--------------|
A|-------------|-666-66666-6-|-------------|--------------|
E|-777-77777-7-|-------------|-444-44444-4-|-000-00000-0/-|

G|----------------------|
D|----------------------|
A|----------------------|
E|-12-12-12-14-15-14-12-|

Pambili…
G|---|----|----|---|
D|---|----|----|---|
A|-9-|-10-|-11-|-7-|
E|---|----|----|---|

G|------------|
D|------------|
A|-66h7-6-----|
E|--------7-2-|





Comments


Popular Eraserheads tabs & chords
Overdrive Bass Tabs
Easy Ka Lang Chords
Kama Supra 1 Chords
Torpedo 1 Chords
Bogchi Hokbu Tabs
Fill Her Tabs
Hahaha Intro 1 Tabs
Toyang 1 Tabs
Walang Nagbago Tabs
Hard To Believe Ukulele


Song lyrics



↑ Back to top | Tablatures and chords are parodies/interpretations of the original songs. You may use it for private study, scholarship, research or language learning purposes only
© 2014 AZChords.com Contact us | Privacy policy | DMCA | Add/correct tabs | Request tabs | Top 50 tabs