» » »

Eraserheads, Magasin Tabs (ver.2)

Artists:  A B C D E F G H I J K L M N O P Q R S T U V W X Y Z # 

Magasin Tabs (ver.2)

Eraserheads Tabs
 Rating:
4/5 (4 votes)
Magasin lessons Tabs too difficult? Try these video lessons and learn fast
                Song Title:  Magasin
Artist/Band: Eraserheads
Album/Year:  CiRcuS (1994)

-----------------------------------------------------------------------------------------

INTRO: C-E-Am-Fm

|-12-12-12~-12-12-----12-12-12~-12---------------------17-13~~-|
|-13-13-13~-13-13h15~-12-12-12~-12-13/15~-13-13-13~-13-17-13~~-|
|----------------------------------12/14~-14-14-14~-14---------|
|--------------------------------------------------------------|
|--------------------------------------------------------------|
|--------------------------------------------------------------|


CHORUS: C-E-Am-F-C-E-Am-Fm

|-8-88-8~-8888h10~-7-77-7~-7777h10-8--8-8-8-8--8-8-8--8--8-8-8-8--8-8-8-8--|
|-8-88-8~-8888-----9-99-9~-9999----10-10101010-101010-10-10101010-10101010-|
|-9-99-9~-9999-----9-99-9~-9999----9--9-9-9-9--9-9-9--10-10101010-10101010-|
|--------------------------------------------------------------------------|
|--------------------------------------------------------------------------|
|--------------------------------------------------------------------------|

|-8-88-8~-8888h10~-7-77-7~-7777h10-8--8-8-8-8--8-8-8--8--8-8-8-8--8-8-8-8--|
|-8-88-8~-8888-----9-99-9~-9999----10-10101010-101010-9--9-9-9-9--9-9-9-9--|
|-9-99-9~-9999-----9-99-9~-9999----9--9-9-9-9--9-9-9--10-10101010-10101010-|
|--------------------------------------------------------------------------|
|--------------------------------------------------------------------------|
|--------------------------------------------------------------------------|


ADLIB: sabay silang dalawa..

Guitar 1:

|-----------------------------------------------------------------------------13-13-13~-13-13/15~|
|-/13-13-13~-13-13h15~-12-12-12~-12-13po12-10h12-12/13-13-13~-13-15po13-12h13--------------------|
|------------------------------------------------------------------------------------------------|
|------------------------------------------------------------------------------------------------|
|------------------------------------------------------------------------------------------------|
|------------------------------------------------------------------------------------------------|

|-12------------12----12-----------12----12-------------------------/17-13-13~~-|
|----13br----------13----12br---------12----13br-----13-15-13-12h13--------13~~-|
|--------12~-12--------------13~-13-------------14~-----------------------------|
|-------------------------------------------------------------------------------|
|-------------------------------------------------------------------------------|
|-------------------------------------------------------------------------------|

Guitar 2:

|-------------------------------------------------------------------------15-17-17-17~-17-17/19~-|
|-/17-17-17~-17-17/18~-15-15-15~-15-17po15-13h15-15/17-17-17~-17-15-17-18------------------------|
|------------------------------------------------------------------------------------------------|
|------------------------------------------------------------------------------------------------|
|------------------------------------------------------------------------------------------------|
|------------------------------------------------------------------------------------------------|

|-15------------15----16------------16----17------------------------20-16-------|
|----17br----------17----17br----------17----17br----17-19-17-16-17-------18~~--|
|--------17~-17--------------16~-16--------------17~----------------------------|
|-------------------------------------------------------------------------------|
|-------------------------------------------------------------------------------|
|-------------------------------------------------------------------------------|


OUTRO: C-E-Am-F

|-12-12-12~-12-12-----12-12-12~-12---------------------17-131313131313131313131313-12~~~-|
|-13-13-13~-13-13h15~-12-12-12~-12-13/15~-13-13-13~-13-17-131313131313131313131313-13~~~-|
|----------------------------------12/14~-14-14-14~-14-----------------------------------|
|----------------------------------------------------------------------------------------|
|----------------------------------------------------------------------------------------|
|----------------------------------------------------------------------------------------|


/ - slide up
~ - let ring
h - hammer on
po - pulloff
br - bend/release

-------------------------------------------------------------------------------------------

SenthyX Zone
Senthyx Band
            
Submit corrections

comments powered by Disqus
↑ Back to top | Eraserheads Tabs for Magasin. Lyrics for acoustic guitar and electric guitar. Tablatures and chords are parodies/interpretations of the original songs. You may use it for private study, scholarship, research or language learning purposes only