>
 >
Magasin

Magasin Bass Tabs

Eraserheads - Magasin chords, tabs, tablatures, lyrics

Guitar lessons | Add/correct | Request | Top 50 tabs Artists:  A B C D E F G H I J K L M N O P Q R S T U V W X Y Z 0-9

Magasin Bass Tabs – Eraserheads

CD, Sheet music, Poster

Do you like Magasin? Share with your friends now
Bass TabsBass Tabs v2Bass Tabs v3Bass Tabs v4Bass Tabs v5Bass Tabs v6ChordsChords v2Chords v3Chords v4TabsTabs v2Tabs v3Ukulele
-----------------------------------------------------------------------------
			     MAGASIN - Eraserheads
-----------------------------------------------------------------------------


Tuning: Standard

Intro:

G|----------------------------------|
D|----------------------------------|
A|-2-2-2--2--6-6-6--6---------------|
E|---------------------4-4-4--4—-0~-|

Verse: “Naaalala mo pa ba noong tayo pang dalawa?”

G|--------------------------------------------------------------------------|
D|--------------------------------------------------------------------------|
A|----6-4-2--------------------------------8-8-8-8-8-8-8—-9\5-5-5-5-5-5-5-5-|
E|-0--------3--3-5-5-5-5-5—-6/7-9-9-9-9--8----------------------------------|

G|--------------------------------------------------------------------------|
D|----4/5-------------------------------------------------------------------|
A|-5------5-5-5-5-5-5-5-5-5-----------------8-8-8-8-8-8-8-8-8—-9\4-4--4--4--|
E|---------------------------4-6-6-6-6-6--8---------------------------------|

G|--------------------|
D|--------------------|
A|-4--4--4--4-7-9-7-5-|
E|--------------------|

Chorus: “Iba na ang iyong ngiti…”

G|---------------------------------------| Repeat      |-----------------|
D|---------------------------------------| this        |-----------------|
A|-2-2-2--2—-6-6-6--6--------------------| tab         |-----------------|
E|---------------------4-4-4--4--0-0-0—0-| twice then… |-2-2-2-4-5/6-5-3-|

Post Chorus: “Sa pambili… oh… oh… pambili sa mukha mong maganda”

G|-----------------------------------------|
D|-4~--4-5~--5-6~--------------------------|
A|-----------------11\7-7~----6-4-2--------|
E|--------------------------5-------3--3-5-|

Verse: “Siguro ay may kotse ka na ngayon…”

G|--------------------------------------------------------------------------|
D|---------------------------5-5-5-5-5-5-5----------------------------------|
A|--------------6-6-6-6-6--6----------------7-7-7-7-7-7-7-7-7—-5/6----------|
E|-7-7-7-7-7--7----------------------------------------------------7-7-7-7--|

G|--------------------------------------------------------------------------|
D|---------------------------------5-5-5-5-5-5-5-5-5-5-5--------------------|
A|----------6-6-6-6-6-6-6-6-6-6--6------------------------11\6-6-6-6-6------|
E|-7-7-7--7------------------------------------------------------------7/11-|

G|-----------------------| Repeat |-----------------| Repeat Chorus then…
D|-----------------------| Chorus |-----------------| Repeat Intro then…
A|-------------------6-4-| then…  |-----------------|
E|-11-11\9-9-9\8-8-7-----|        |-2-2-2-4-5/6-5-3-|

Verse: “Nakita kita sa isang magasin at sa sobrang gulat hindi ko napansin…”

G|----------------------------------------------| Repeat
D|-------------------------5--5--5-5------------| this
A|--------------6--6--6-6-------------7--7--7-7-| tab
E|-7--7--7-7--7---------------------------------| twice then…

G|------------------------------| Repeat Chorus then…
D|------------------------------| Repeat Post – Chorus Then…
A|-7\5-5-5-5-5--7-7-7-7-7-7-7-7-|
E|------------------------------|

“Iba na ang iyong ngiti…”

G|----------------------------------------| Repeat
D|----------------------------------------| this
A|-3-3-3--3--7-7-7--7---------------------| twice
E|---------------------5-5-5--5--1-1-1--1-| then…

G|-----------------------------------------|
D|-----------------4~--4-5~--5-6~----------|
A|---------------------------------11\7-7~-|
E|-2-2-2-4-5/6-5-3-------------------------|

“Sana sa susunod na isyu ay centerfold ka na…”

G|----------------------------| Repeat Chorus then…
D|----------------------------| Repeat Intro
A|------------------------6-4-|
E|-7/11-11-11\9-9-9\8-8-7-----|





Comments


Popular Eraserheads tabs & chords
Ang Huling El Bimbo 3 Bass Tabs
Pare Ko 3 Bass Tabs
Balikbayan Box Chords
Huling El Bimbo 2 Chords
Old Fashioned Christmas Carol 1 Chords
Tikman 2 Chords
Ligaya 2 Tabs
Christmas Ball Ukulele
Huwag Kang Matakot Ukulele
Lightyears Ukulele


Song lyrics



↑ Back to top | Tablatures and chords are parodies/interpretations of the original songs. You may use it for private study, scholarship, research or language learning purposes only
© 2014 AZChords.com Contact us | Privacy policy | DMCA | Add/correct tabs | Request tabs | Top 50 tabs