» » »

Eraserheads, Lightyears Tabs (ver.1)

Artists:  A B C D E F G H I J K L M N O P Q R S T U V W X Y Z # 

Lightyears Tabs (ver.1)

Eraserheads Tabs
 Rating:
4/5 (4 votes)
Lightyears lessons Tabs too difficult? Try these video lessons and learn fast
                gusto ko talaga song s ng eheads.......para sa mga 2lad kong fan ng eraserheads
mabuhay tayong lahat..........

verse 1:D-Dm-A-E-D-A
       how it feels so strange .....papasok i2
      e--2h3-----------------------------------|
      B------3\7-5-3---------------------------|
      G----------------------------------------|
      D----------------------------------------|
      A----------------------------------------|
      E----------------------------------------| 3X

chorus:E-D-E-D-C-F-E-F-D-E
Adlib:
      e---------------------------------------------------------------------|
      B-7^9-6--9^-----------------------------------------------9^11-8-9^---|
      G-----------6--5h6-5-0-5h6-5-0-5h6-0-5h6-5h6-5h6-5h6--5/9-----------8-|
      D---------------------------------------------------------------------|
      A---------------------------------------------------------------------|
      E---------------------------------------------------------------------|
           tapos papasok ulit ung how it feels so strange...mikepetrola
            
Submit corrections

comments powered by Disqus
↑ Back to top | Eraserheads Tabs for Lightyears. Lyrics for acoustic guitar and electric guitar. Tablatures and chords are parodies/interpretations of the original songs. You may use it for private study, scholarship, research or language learning purposes only