» » »

Eraserheads, Kama Supra Tabs (ver.2)

Artists:  A B C D E F G H I J K L M N O P Q R S T U V W X Y Z # 

Kama Supra Tabs (ver.2)

Eraserheads Tabs
 Rating:
4/5 (4 votes)
Kama Supra lessons Tabs too difficult? Try these video lessons and learn fast
                -----------------------------------------------------------------------------
                             KAMASUPRA - Eraserheads
-----------------------------------------------------------------------------


Tuning: Standard

Intro:

G|--------------------------------------------------------------| Repeat this
D|--------------------------------------------------------------| tab twice
A|-12-12-12-11-12-9-7-5-5-4h5p4--12-12-12-11-12-9-7-5-5-4h5p4---| then…
E|--------------------------------------------------------------|

Verse: “Sampung buwan na akong hindi natutulog kasi naman ang ingay ng aming kapitbahay 
gabi discohouse at videoke kaya sorry na lang kung wala sa aking sarili…”

G|------------------------------------------------------------------------|
D|------------------------------------------------------------------------|
A|------------7----------------7----------------7----------------7--------|
E|-10-10-8h10---8~--10-10-8h10---8~--10-10-8h10---8~--10-10-8h10---8~--10-|

G|------------------------------------------------------------------------|
D|------------------------------------------------------------------------|
A|---------7----------------7----------------7----------------7-----------|
E|-10-8h10---8~--10-10-8h10---8~--10-10-8h10---8~--10-10-8h10---8~--10-10-|

G|----------------------------|
D|----------------------------|
A|------7----------------7----|
E|-8h10---8~--10-10-8h10---8~-|

Chorus: “Ang aking kama at ang malupit kong unan…”

G|----------------------------------------------------------| Repeat this tab
D|--------------------------------------8-8/10-10-9-9-7-7-5-| twice then…
A|------------------------------------7---------------------|
E|-8-8-8-9-9/11--8-8-8-9-9p8--7-7-7-9-----------------------|

Post Chorus:

G|------------------------------------------------| Repeat Intro then…
D|------------------------------------------------| Repeat Verse then…
A|-----7-7-5-------7-7-5------7-7-5-------7-7-5---| Repeat Chorus then…
E|-5-5-------5-5-5--------5-5-------5-5-5---------| Repeat Post Chorus then…

G|------------------------------------------------------------| then…
D|------------------------------------------------------------|
A|-12-12-12-11-12-9-7-5-5-4h5p4--12-12-12-11-12-9-7-5-5-4h5p4-|
E|------------------------------------------------------------|

G|-----------------------------------------------------| Repeat this tab twice
D|-----------------------------------------------------| then…
A|------------7----------------7----------------7------| Repeat Chorus twice
E|-10-10-8h10---8~--10-10-8h10---8~--10-10-8h10---8~---| then…

Repeat Post Chorus then…

G|--------------------------------------------------------------| Repeat the
D|--------------------------------------------------------------| tab of Chorus
A|-12-12-12-11-12-9-7-5-5-4h5p4--12-12-12-11-12-9-7-5-5-4h5p4---| thrice then…
E|--------------------------------------------------------------|

Repeat Post Chorus until fade…
            
Submit corrections

comments powered by Disqus
↑ Back to top | Eraserheads Tabs for Kama Supra. Lyrics for acoustic guitar and electric guitar. Tablatures and chords are parodies/interpretations of the original songs. You may use it for private study, scholarship, research or language learning purposes only