» » »

Hula Tabs (ver.1)

Artists:  A B C D E F G H I J K L M N O P Q R S T U V W X Y Z # 

Hula Tabs (ver.1)

Eraserheads
Rating:
0/5 (0 votes)

Hard to play? Try these video lessons and learn fast.
                Tuning: Drop D

Intro :

E|--------------------------------------------------------------|
B|--------------------------------------------------------------|
G|--------------------------------------------------------------|
D|---1----3----5----8---------1----3----5----5-3----------------|
A|---1----3----5----8---------1----3----5----5-3----------------| 2x
D|---1----3----5----8---------1----3----5----5-3----------------|

E|--------------------------------------------------------------|
B|--------------------------------------------------------------|
G|--------------------------------------------------------------|
D|--------------------------------------------------------------|
A|--1—-1-1-3—-5—-6-----------1—-1-1-3—-3-3---3h5-3--------------| 2x
D|--------------------------------------------------------------|

Verse:

E|--------------------------------------------------------------|
B|--------------------------------------------------------------|
G|--------------------------------------------------------------|
D|--------------------------------------------------------------|
A|--1—-1-1-3—-5—-6-----------1—-1-1-3—-3-3---3h5-3--------------| 2x
D|--------------------------------------------------------------|

E|------------------------|
B|------------------------|
G|------------------------|
D|--6-6-6-6-6-6-6-----1---|
A|--6-6-6-6-6-6-6-----1---|
D|--6-6-6-6-6-6-6-----1---|
   Bukas magwawakas...

E|--------------------------------------------------------------|
B|--------------------------------------------------------------|
G|--------------------------------------------------------------|
D|--------------------------------------------------------------|
A|--1—-1-1-3—-5—-6-----------1—-1-1-3—-3-3---3h5-3--------------| 2x
D|--------------------------------------------------------------|
      Na ba ang lahat?

E|--------------------------------------------------------------|
B|--------------------------------------------------------------|
G|--------------------------------------------------------------|
D|--------------------------------------------------------------|
A|--1—-1-1-3—-5—-6-----------1—-1-1-3—-3-3---3h5-3--------------| 2x
D|--------------------------------------------------------------|

E|------------------------|
B|------------------------|
G|------------------------|
D|--6-6-6-6-6-6-6-----1---|
A|--6-6-6-6-6-6-6-----1---|
D|--6-6-6-6-6-6-6-----1---|
   Bukas walang batas...

E|--------------------------------------------------------------|
B|--------------------------------------------------------------|
G|--------------------------------------------------------------|
D|--------------------------------------------------------------|
A|--1—-1-1-3—-5—-6-----------1—-1-1-3—-3-3---3h5-3--------------| 2x
D|--------------------------------------------------------------|
       At di pabibigo

Bridge:

E|-----------------------------------------------------|
B|-----------------------------------------------------|
G|-----------------------------------------------------|
D|--6-6-6-6-6-6-6-6-6-6-6-6-6-6----3-3--5-5--3-3—-5-5--|
A|--6-6-6-6-6-6-6-6-6-6-6-6-6-6----3-3--5-5—-3-3--5-5--| 2x
D|--6-6-6-6-6-6-6-6-6-6-6-6-6-6----3-3--5-5--3-3--5-5--|
   Inukit sa mga kamay...           ng hula,  hula

Adlib:

E|-------------------------------------|
B|-------------------------------------|
G|------8-8-8-7-7-7-5-5-5-4-4-4--------|
D|--1---8-8-8-7-7-7-5-5-5-4-4-4—-1-----|
A|--1---6-6-6-5-5-5-3-3-3-2-2-2—-1-----| 3x
D|--1----------------------------1-----|

(one strum each; dapat mabilis)
E|---------------------|
B|---------------------|
G|---------------------|
D|---1-3-1-3-1-3-1-4---|
A|---1-3-1-3-1-3-1-4---|
D|---1-3-1-3-1-3-1-4---|

Outro:

E|--------------------------------------------------------------|
B|--------------------------------------------------------------|
G|--------------------------------------------------------------|
D|--------------------------------------------------------------|
A|--1—-1-1-3—-5—-6-----------1—-1-1-3—-3-3---3h5-3--------------| 4x
D|--------------------------------------------------------------|
   

Di ko na nilagay yung lyrics...kayo nang bahala dyan...diskartehan nyo na lang yan...
            
Hard to play? Try these video lessons and learn fast. | Correct




comments powered by Disqus
↑ Back to top | Tablatures and chords are parodies/interpretations of the original songs. You may use it for private study, scholarship, research or language learning purposes only