» » »

Eraserheads, Harana Tabs (ver.1)

Artists:  A B C D E F G H I J K L M N O P Q R S T U V W X Y Z # 

Harana Tabs (ver.1)

Eraserheads Tabs
 Rating:
4.6/5 (9 votes)
Harana lessons Tabs too difficult? Try these video lessons and learn fast
1
                (Intro)
Hello guys! first tab ko po ito, kaso intro lang. pero 98% correct po ito, lalo na po 
nung version nila nung reunion concert yung sinabayan nyo. ^^ hehe enjoy. XD


      Bm           C                          Bm       C

e|----14--------14-15-12------------       ---------14-15-12-17-15-14-|
B|--------12-15-----------13-15-12--       ---12-15-------------------|
G|----------------------------------pause  ---------------------------|
D|----------------------------------saglit ---------------------------|
A|----------------------------------tpos.. ---------------------------|
E|----------------------------------       ---------------------------|

pause po ulit saglit dun tapos..


     Bm       C            C#m                      D

                                                    (na..na.. na.. naa..)
e|---------14-15-12--------15-12-------15-12----------------------------|
B|---12-15----------13-----------13----------13-----15b--17b--19b--21---|
G|---------------------12-----------12----------12----------------------|
D|----------------------------------------------------------------------|
A|----------------------------------------------------------------------|
E|----------------------------------------------------------------------|


tapos strumming na po ulit.. start po kau sa C then Bm - Am - G

un :D
pwede nyo rin po i-play yan sa chorus. XD

hehehe paki-rate nlng po..
tska pki send or email lang po ung comments, suggestions or add-ons sa


well that's it! hehe sana nakatulong ako kahit konti ^^
            
Submit corrections

comments powered by Disqus
↑ Back to top | Eraserheads Tabs for Harana. Lyrics for acoustic guitar and electric guitar. 1 Tablatures and chords are parodies/interpretations of the original songs. You may use it for private study, scholarship, research or language learning purposes only