» » »

Eraserheads, Bogchi Hokbu Tabs (ver.1)

Artists:  A B C D E F G H I J K L M N O P Q R S T U V W X Y Z # 

Bogchi Hokbu Tabs (ver.1)

Eraserheads Tabs
 Rating:
4/5 (4 votes)
Bogchi Hokbu lessons Tabs too difficult? Try these video lessons and learn fast
                Artist/Band: Eraserheads

Intro: (sunud-sunod yung mga instrument dyan, pagkatapos)

E|-------------------------------------------------------------------|
B|--6---6---6-6---66------6---6—--6-6---66------6—-6—-66-------------|
G|----7---7-----7----7—--7---7---7----7----7---7—-7—-7---7-----------|
D|-------------------------------------------------------------------|
A|-------------------------------------------------------------------|
E|-------------------------------------------------------------------|

Then...

E|----------------------------------------|
B|-----6---6---6—6---8-8-8----------------|
G|---7---7---7-----7----------------------|
D|----------------------------------------|
A|----------------------------------------|
E|----------------------------------------|

E|-------------------------------------------------|
B|-----6---6—--6-6---66---------6---6—--6-6---66---|
G|----7---7---7----7----7------7---7---7----7----7-|
D|-------------------------------------------------| 2x
A|-------------------------------------------------|
E|-------------------------------------------------|
     Bogchi...                 Hokbu...

Verse: (w/effects)

E|----------------------------------------------------|
B|----6—-6-6—-8---------6-6—-6-6—8--------------------|
G|--7-------------------------------------------------|
D|----------------------------------------------------|
A|----------------------------------------------------|
E|----------------------------------------------------|
   Wanda telas porensi to i tagas patohi...

Chorus:

E|----------------------------------------------------------------|
B|---6---6—--6-6---66-----------6---6---6—6---8-8-8---------------|
G|--7---7---7----7----7--------7---7---7-----7--------------------|
D|----------------------------------------------------------------|
A|----------------------------------------------------------------|
E|----------------------------------------------------------------|
   Bogchi...                   Hokbu...

E|----------------------------------------------------------------|
B|-----6---6—--6-6---66---------6---6—--6-6---66------------------|
G|----7---7---7----7----7------7---7---7----7----7----------------|
D|----------------------------------------------------------------| 
A|----------------------------------------------------------------|
E|----------------------------------------------------------------|
     Bogchi...                 Hokbu...

Verse 2: (w/effects pa rin)

E|----------------------------------------------------|
B|----6—-6-6—-8---------6-6—-6-6—8--------------------|
G|--7-------------------------------------------------|
D|----------------------------------------------------|
A|----------------------------------------------------|
E|----------------------------------------------------|
   
Repeat chorus

Adlib:

E|----1----1-----------1----1-----------1-----1-----------|
B|--3----3---3—2-2-2h3----3---3—2-2-2h3----3-----3-2-2----|
G|--------------------------------------------------------|
D|--------------------------------------------------------|
A|--------------------------------------------------------|
E|--------------------------------------------------------|

E|--------------------------------------------------------|
B|-------------2--------------2--------------2------------|
G|---4-4-4-3-4------4-4-4-3-4-----4-4-4-3-4---------------|
D|--------------------------------------------------------|
A|--------------------------------------------------------|
E|--------------------------------------------------------|

Repeat chorus (drums only)

Repeat chorus (w/ guitar)

E|--------------------------------------------------------|
B|---8-8-8---8-8-8---8-8-8-8---9-9------------------------|
G|--------------------------------------------------------|
D|--------------------------------------------------------| 4x
A|--------------------------------------------------------|
E|--------------------------------------------------------|
     Owww!

Repeat chorus (adliban niyo na lang yung gitara sa part na 'to)
            
Submit corrections

comments powered by Disqus
↑ Back to top | Eraserheads Tabs for Bogchi Hokbu. Lyrics for acoustic guitar and electric guitar. Tablatures and chords are parodies/interpretations of the original songs. You may use it for private study, scholarship, research or language learning purposes only