» » »

Eraserheads, Ang Huling El Bimbo Chords (ver.2)

Artists:  A B C D E F G H I J K L M N O P Q R S T U V W X Y Z # 

Ang Huling El Bimbo Chords (ver.2)

Eraserheads Tabs
 Rating:
4.6/5 (10 votes)
Ang Huling El Bimbo lessons Tabs too difficult? Try these video lessons and learn fast
                |---------------------------------------------------------------------------|
HEY GUYS!!! THIS MY FIRST TIME TAB I HOPE U LIKE IT!!!!!
IT'S BECAUSE I GOT THE RIGHT TUNE FOR THIS SONG!!!
PLEASE RATE NAMAN PO!!!
THX NA LNG!!!

-------------------
  HALF-STEP DOWN
-------------------
 Eb,Ab,Db,Gb,Bb,Eb
-------------------
Intro: 
      G      A      C       G
Eb|---3------5------8-------3-------|
Bb|---3------5------8-------3-------|
Gb|---0------0------0-------0-------|
Db|---0------0------0-------0-------|
Ab|---2------4------7-------2-------| 2x
Eb|---3------5------8-------3-------|

Verse:
G-A7-C-G
Kamukha mo si Paraluman
No'ng tayo ay bata pa
At ang galing-galing mong sumayaw
Mapa-Boogie man o Chacha

Ngunit ang paborito
Ay pagsayaw mo ng El Bimbo
Nakakaindak, nakakaaliw
Nakakatindig balahibo

REFRAIN 1:
Em-G-C-D
Pagkagaling sa 'skwela ay didiretso na sa inyo
At buong maghapon ay tinuturuan mo ako

CHORUS:katulad sa intro pero kayo na ang bahala sa strum!!!
Magkahawak ang ating kamay at walang kamalay-malay
Na tinuruan mo ang puso ko na umibig na tunay

Verse:
G-A7-C-G
Naninigas aking katawan
'Pag umikot na ang plaka
Patay sa kembot ng bewang mo
At pungay ng 'yong mga mata

Lumiliwanag ang buhay
Habang tayo'y magkaakbay
At dahan-dahang dumudulas
Ang kamay ko sa makinis mong braso, hooh

REFRAIN 2:
Em-G-C-D
Sana noon pa man ay sinabi na sa iyo, hoh
Kahit hindi na uso ay ito lang ang alam ko

(CHORUS)
katulad sa verse!!!
La la la la, la la, la la, la la la

Verse:
G-A7-C-G
Lumipas ang maraming taon
'Di na tayo nagkita
Balita ko'y may anak ka na
Ngunit walang asawa

Tagahugas ka raw
Ng pinggan sa may Ermita
At isang gabi'y nasagasaan
Sa isang madilim na eskinita, hah

REFRAIN 3:
Em-G-C-D
Lahat ng pangarap ko'y bigla lang natunaw
Sa panaginip na lang pala kita maisasayaw

(CHORUS 2x)

CODA 1:katulad pa rin sa verse!!!!
La la la la, la la, la la, la la la [2x]
CODA 2:
      G      A      C       G
Eb|---3------5------8-------3-------|
Bb|---3------5------8-------3-------|
Gb|---0------0------0-------0-------|
Db|---0------0------0-------0-------|
Ab|---2------4------7-------2-------| 8x ata yun pero iba-iba ang strum!
Eb|---3------5------8-------3-------|

thank you very much for the rate!!!!
hehehehe
|---------------------------------------------------------------------------|
            
Submit corrections

comments powered by Disqus
↑ Back to top | Eraserheads Chords for Ang Huling El Bimbo. Lyrics for acoustic guitar and electric guitar. Tablatures and chords are parodies/interpretations of the original songs. You may use it for private study, scholarship, research or language learning purposes only