» » »

Enya, Breaking Of The Fellowship Tabs (ver.1)

Artists:  A B C D E F G H I J K L M N O P Q R S T U V W X Y Z # 

Breaking Of The Fellowship Tabs (ver.1)

Enya Tabs
Rating:
5/5 (1 vote)
Breaking Of The Fellowship lessons Tabs too difficult? Try these video lessons and learn fast
                
Now, this song is very long(11:35 mins)so im going to do it in parts, this will be part 1 and so on.


|------------------------------------------------------------------------|
|------------------------------------------------------------------------|
|-11-7-7-9--7-9-11-11-14-16-16-19-21-23-21-19-21-21-21-16-19-23-21-19-19-|
|-----7------------------------------------------------------------------|
|------------------------------------------------------------------------|
|------------------------------------------------------------------------|

this little one in a continuation the one right above.
 

|--------------|
|--------------|
|-16-14--14----|
|------16--14--|
|--------------|
|--------------|

this part was tricky, and I still dont know if its perfect

|--------------------------------------------|-----------------------------|
|--------------------------------------------|-----------------------------|
|--------------------------------------------|-13-15-17-20--13-15-17-17----|
|-11-14-13-16-14-18-16---11-14-13-16-14-18-16|---------------------------19|
|--------------------------------------------|-----------------------------|
|--------------------------------------------|-----------------------------|

this one is a continuation the one right above.
 
|--------------------------------------------------------------------------|
|--------------------------------------------------------------------------|
|--------------------------------------------------------5-9-7-5-4-2-4-0-2-|
|-17-16-14--14-16-14--19-19-17--11-14-11-9-11------------------------------|
|--------------------------------------------5-10-5-3-5-4------------------|
|--------------------------------------------------------------------------|

|--------------------------------------------------------------------------|
|--------------------------------------------------------------------------|
|-9-11-13-16-16h14-16-14--9-11-13-16-13-11-9-7-9-9--7-9-11-14-16--14/16/18-|
|---------------------------------------------------------------16---------|
|--------------------------------------------------------------------------|
|--------------------------------------------------------------------------|

this one is a continuation the one right above.

|-----------------------------------------|
|-----------------------------------------|
|-19--19-18-16-14--7-9-11-14-11--7-9-11-9-|
|-----------------------------------------|
|-----------------------------------------|
|-----------------------------------------|


|-5-7-9-12-9-7-5--9-12-14-17-16-12-9-10h9-7--5-7-9-12-9-7-5--9-12-14-14-12-|
|--------------------------------------------------------------------------|
|--------------------------------------------------------------------------|
|--------------------------------------------------------------------------|
|--------------------------------------------------------------------------|
|--------------------------------------------------------------------------|

this one is a direct continuation of the one above.

|-9-7-5-|
|-------|
|-------|
|-------|
|-------|
|-------|

well thats part 1, enjoy, i will do part 2 soon
            
Submit corrections

comments powered by Disqus
↑ Back to top | Enya Tabs for Breaking Of The Fellowship. Lyrics for acoustic guitar and electric guitar. Tablatures and chords are parodies/interpretations of the original songs. You may use it for private study, scholarship, research or language learning purposes only