» » »

Entity Paradigm, Hamesha Tabs (ver.1)

Artists:  A B C D E F G H I J K L M N O P Q R S T U V W X Y Z # 

Hamesha Tabs (ver.1)

Entity Paradigm Tabs
Rating:
0/5 (0 votes)
Hamesha lessons Tabs too difficult? Try these video lessons and learn fast
                intro:

   |-X-X-----X-X-----X-X-----X-X-X-X-----X-X-----------------|
   |-X-X-----X-X-----X-X-----X-X-X-X-----X-X-----------------|
   |-X-X-----X-X-----7-7-----5-5-5-5-----7-7-----------------|  
   |-2-2-----5-5-----7-7-----5-5-5-5-----7-7-----------------|  
   |-2-2-----5-5-----5-5-----3-3-3-3-----5-5-----------------|
   |-0-0-----3-3-----X-X-----X-X-X-X-----X-X-----------------|  x4

4th time u end it in :

   |-X-X-X-X-----X-X-X-X---------------|
   |-X-X-X-X-----X-X-X-X---------------|
   |-5-5-5-5-----7-7-7-7---------------|  
   |-5-5-5-5-----7-7-7-7---------------|  
   |-3-3-3-3-----5-5-5-5---------------|
   |-X-X-X-X-----X-X-X-X---------------|

(verse)

chorus:



|-X-X-X----X-X-X----X-X-X----X-X----X-X-----------------|
|-X-X-X----X-X-X----X-X-X----X-X----X-X-----------------|
|-X-X-X----X-X-X----7-7-7----5-5----7-7-----------------|  
|-2-2-2----5-5-5----7-7-7----5-5----7-7-----------------|  
|-2-2-2----5-5-5----5-5-5----3-3----5-5-----------------|
|-0-0-0----3-3-3----X-X-X----X-X----X-X-----------------| 

chahe kuch bhi ho jaye main rahoon ga

chahe waqt tham jaye main rahoon ga

main rahoon ga hamesha main rahoon ga

maut aye tau aye main rahoon ga-----> end with (strum upwards) 022XXX wen he says 'gaa' after a long pause

solo (perfect):

e|------------------------------------------------------------|
B|------------------------------------------------------------|
G|------------------------------------------------------------|
D|---5-5-5/7-7-9-7-5/7-9-7-5-4-5-5-5-7-5-4-5-4-2-4-5-4--------|
A|------------------------------------------------------------|
E|------------------------------------------------------------|


e|-12-12-12-12-14-14-14-14-12-12-12-12-14-14-14-14-12-12-12-12|
B|------------------------------------------------------------|
G|------------------------------------------------------------|
D|------------------------------------------------------------|
A|------------------------------------------------------------|
E|------------------------------------------------------------|

e|-14-14-14-14-15-15-15-15-14-14-14-14-14-12------------------|
B|------------------------------------------------------------|
G|------------------------------------------------------------|
D|------------------------------------------------------------|
A|------------------------------------------------------------|
E|------------------------------------------------------------|
            
Submit corrections

comments powered by Disqus
↑ Back to top | Entity Paradigm Tabs for Hamesha. Lyrics for acoustic guitar and electric guitar. Tablatures and chords are parodies/interpretations of the original songs. You may use it for private study, scholarship, research or language learning purposes only