» » »

Dainty Delusive Doll Tabs (ver.1)

Artists:  A B C D E F G H I J K L M N O P Q R S T U V W X Y Z # 

Dainty Delusive Doll Tabs (ver.1)

Enslavement Of Beauty
Rating:
0/5 (0 votes)

Hard to play? Try these video lessons and learn fast.
                Really easy song. Listen for timing.

Key:
_______________________________
(#) Means to let the note ring.|
_______________________________|


Verse Riff
G|---------------------------------------------------------------------------|
D|---------------------------------------------------------------------------|
A|---------------------------------------------------------------------------|
E|5-5-5-5-5-5-5-5-5-5-5-5-0-0-0-0-0-0-0-0-0-0-0-0-1-1-1-1-1-1-1-3-3-3-3-3-3-3|

Verse Riff Continued
G|-----------------------------|
D|-----------------------------|
A|-----------------------------|
E|8-8-8-8-8-8-8-7-7-7-7-0-0-0-0|

Pre-Chorus
G|-----------|-----------|-------------------------------------------|
D|-----------|-----------|-------------------------------------------|
A|-----------|-----------|-------------------------------------------|
E|5--5-5--5-3|5--5-5--5-7|1-1--1-1--1-1--3-3--3-3--3-3--1-1--1-1--1-1|

Pre-Chorus Continued
G|-------------|
D|-------------|
A|-------------|
E|3-3--3-3--3-0|

Before Interlude
G|-------------|  (Repeat for as long as he does.)
D|-------------|
A|-------------|
E|5-5--5-5--5-5|

Clean Singing Interlude
G|-------------------------------------------|------------------------|
D|-------------------------------------------|------------------------|
A|-------------------------------------------|------------------------|
E|5--5-5--3--3-3--1--1-1-1--1-1-1--1-1-1--1-1|5--5-5--3--3-3--1--1-1-1|

Clean Singing Interlude Continued
G|---------------------|    
D|---------------------|    (Play interlude during solo.)
A|---------------------|
E|1-1-1--1-1-1--1-1-1-3|

Final Verse Riff
G|---------------------------------------------------------------------------|
D|---------------------------------------------------------------------------|
A|---------------------------------------------------------------------------|
E|5-5-5-5-5-5-5-5-5-5-5-5-0-0-0-0-0-0-0-0-0-0-0-0-1-1-1-1-1-1-1-3-3-3-3-3-3-3|

Final Verse Riff Continued
G|----------------------|---------|(Every time you play last verse, play as 
D|----------------------|---------|you would the normal verse riff, but play
A|----------------------|---------|what's in the box the last time and leave
E|8-8-8-8-8-8-8-7-7-7-7-|0-0-5-(5)|the last note ringing.)
            
Hard to play? Try these video lessons and learn fast. | Correct




comments powered by Disqus
↑ Back to top | Tablatures and chords are parodies/interpretations of the original songs. You may use it for private study, scholarship, research or language learning purposes only