» » »

Enslavement Of Beauty, Crowd Of Mourners Tabs (ver.1)

Artists:  A B C D E F G H I J K L M N O P Q R S T U V W X Y Z # 

Crowd Of Mourners Tabs (ver.1)

Enslavement Of Beauty Tabs
Rating:
0/5 (0 votes)
Crowd Of Mourners lessons Tabs too difficult? Try these video lessons and learn fast
                My first tab. I this should be the way you play the song, but please correct me if there 
anything wrong. Since there are no EoB tabs here I thought I might submit some :)
(play sensually with passion)

(X4 part one)
e:------------------------|
b:--5-3-5-6-6-5-3-6-8-6-5-|
g:------------------------|
d:------------------------|
a:------------------------|
E:------------------------|

(X1 part two)
e:-------------------------------------------|
b:--5-3-3-3-------3---5----------------------|
g:----------5-5-5---4------------------------|
d:----------------------9----7---------------|
a:------------------------10---9-7-----------|
E:-------------------------------------------|

(part 3 same as first only with the slight difference in the end)
e:--------------------------|
b:--5-3-5-6-6-6-5-3-6-8-6-5-|
g:--------------------------|
d:--------------------------|
a:--------------------------|
E:--------------------------|

will be added from this great band, I just need to get a little bit more used to typing 
tabs.

Live well..
            

comments powered by Disqus
↑ Back to top | Enslavement Of Beauty Tabs for Crowd Of Mourners. Lyrics for acoustic guitar and electric guitar. Tablatures and chords are parodies/interpretations of the original songs. You may use it for private study, scholarship, research or language learning purposes only