>
 >
Chi Mai

Chi Mai Guitar Tabs

Ennio Morricone - Chi Mai chords, tabs, tablatures, lyrics

Guitar lessons | Add/correct | Request | Top 50 tabs Artists:  A B C D E F G H I J K L M N O P Q R S T U V W X Y Z 0-9

Chi Mai Guitar Tabs – Ennio Morricone

CD, Sheet music, Poster

Do you like Chi Mai? Share with your friends now
ChordsChords v2TabsTabs v2Ukulele
Standard tuning
Key signature: A major
Time signature: 12/8

Andante
E|-------------------------------------|-------------------------------------|
B|--10-------10-------10-------10------|--10-------10-------10-------10------|
G|-------------------------------------|-------------------------------------|
D|-------------------------------------|-------------------------------------|
A|-------------------------------------|-------------------------------------|
E|-------------------------------------|-------------------------------------|
                     poco rallentando

   C9.................................   C9.................................
E|--9-----------------9--------9-------|-------------------------------------|
B|----------10-------------------------|-------------12-10-12----------------|
G|-------11----11----------11-------11-|-----------9-----------------9-------|
D|----11----------11----11-------11----|--------9-----------------9-----9----|
A|--9-----------------9--------9-------|----11----------------11----------11-|
E|-------------------------------------|--0-----------------0----------------|
   a tempo

   C2.................................   C2...............
E|--5--------2-----------------4-----5-|--5--------------------------4-----2-|
B|--------2--------2--------2----------|-----------3--------------0----------|
G|-----2--------2--------2--------2----|--------2--------2-----1--------1----|
D|--4-----------------4----------------|-----4--------4----------------------|
A|-------------------------------------|--2----------------------------------|
E|-------------------------------------|--------------------0----------------|

   C2.................................                     C2...............
E|--4----------------------------------|-----------2-----0--2----------------|
B|-----------2-------------------------|--------3--------------------3-------|
G|--------2--------2--------2--------2-|-----2--------2-----------4--4-----4-|
D|-----2--------2--------2--------2----|--0--------------------4--------4----|
A|--0-----------------0--------0-------|--------------------2----------------|
E|-------------------------------------|-------------------------------------|

   C9.................................                     C2...............
E|-----------9-------------------------|-----------9--------9--------9-------|
B|--------9----------12-------12-------|--------9--------9--------9--------9-|
G|----10----------10-------10-------10-|----10-------10-------10-------10----|
D|-------------11-------11-------11----|-------------------------------------|
A|-------------------------------------|-------------------------------------|
E|--9----------------------------------|--9----------------------------------|
                                                     rallentando

   C9.................................   C9.................................
E|--9-----------------9--------9-------|-------------------------------------|
B|----------10-------------------------|-------------12-10-12----------------|
G|-------11----11----------11-------11-|-----------9-----------------9-------|
D|----11----------11----11-------11----|--------9-----------------9-----9----|
A|--9-----------------9--------9-------|----11----------------11----------11-|
E|-------------------------------------|--0-----------------0----------------|
  a tempo

                                         C2...............
E|----------14-----------------------5-|--5-----------------4p2-4--4p2-4--4p2-4-|
B|-10----10-------10-------10--9-------|-----------3----------------------------|
G|----11-------11-------11-------------|--------2--------2----------------------|
D|--0-----------------0----------------|-----4--------4-------------------------|
A|-------------------------------------|--2-------------------------------------|
E|-------------------------------------|--------------------0-------------------|
                                                            ^ ^    ^ ^    ^ ^

   C2.................................
E|--4----------------------------------|--2--------2--------2p0-2--2p0-2--2p0-2-|
B|-----------2--------2--------2-------|--3-----3--------3----------------------|
G|--------2--------2--------2--------2-|-----2--------2-------------------------|
D|-----2--------2--------2--------2----|--0-------------------------------------|
A|--0----------------------------------|----------------------------------------|
E|-------------------------------------|----------------------------------------|
                                                            ^ ^    ^ ^    ^ ^

                                         C1............... C4..................
E|--2----------------------------------|--1--------1----------------------------|
B|-----------0--------0--------0-------|--------2--------2--6p4-6--6p4-6--6p4-6-|
G|-------------------------------------|-----1--------1-------------------------|
D|-----0--4-----0--4-----0--4-----0--4-|----------------------------------------|
A|-------------------------------------|--4-----------------4-------------------|
E|--4----------------------------------|----------------------------------------|
                                                            ^ ^    ^ ^    ^ ^

                                   CODA
   C2.................................   C2..................................
E|-----------2--------2----------------|-------------------------------------|
B|--------2--------2--------2--------2-|-----------2--------2--------2-------|
G|-----2--------2--------2--------2----|--------2--------2--------2--------2-|
D|--4--------------------------4-------|-----4--------4--------4--------4----|
A|-------------------------------------|-------------------------------------|
E|-------------------------------------|--2----------------------------------|

  .........
E|---------------------------------------|
B|--2--------------0-2-3-2-0-------------|
G|--------2-------------------------2--1-|
D|-----4---------------------------------|
A|---------------------------------------|
E|--2--------0---------------------------|
                   ^ ^ ^ ^

  C2...............
E|-----------------------------------------0|
B|-----------2-----------------------0-2-3--|
G|--2-----2--------2--------1--2------------|
D|-----4--------4--------4------------------|
A|------------------------------------------|
E|--2-----------------0---------------------|
                                     * * * *

E|--2--------2--0-2-3-2-0-----0--------|------------------------------------|
B|--------3------------------------3-2-|--3--------3--------3--------3--2-0-|
G|-----2-------------------------------|--------4--------4--------4---------|
D|--0----------------------------------|-----4--------4--------4------------|
A|-------------------------------------|--2---------------------------------|
E|-------------------------------------|------------------------------------|
                ^ ^ ^ ^            ^ ^                                  ^ ^

   C2...............  C4...........      C1.................................
E|-----------2--------4----------------|-----------1--------1--------1--2--4-|
B|--2-----2--------2--------------7----|--------2--------2--------2----------|
G|-----2--------2--------------5-------|-----1--------1--------1-------------|
D|--4-----------------------4----------|-------------------------------------|
A|-----------------------6-------------|--4----------------------------------|
E|--------------------4----------------|-------------------------------------|

                     C7                  C4..................................
E|--5--------9--------7----------------|--4--------4--------4--------4-------|
B|--7-----------------7--------------7-|--------6--------6--------7--------7-|
G|--6-----------------7----------------|-----6--------6--------6--------6----|
D|--4----------------------------------|--4----------------------------------|
A|-------------------------------------|-------------------------------------|
E|--------------------7----------------|-------------------------------------|

  ....................................
E|--4--------4--------4--------4-------||
B|--------6--------6--------7--------7-||
G|-----6--------6--------6--------6----||
D|--4----------------------------------||
A|-------------------------------------||
E|-------------------------------------||
                rallentando


Play from SEGNO to CODA and then continue here:

   C2........................................................................
E|-----------2--------2----------------|-----------2--------2----------------|
B|--------2--------2--------2--------2-|--------2--------2--------2--------2-|
G|-----2--------2--------2--------2----|-----2--------2--------2--------2----|
D|--2--------------------------2-------|-------------------------------------|
A|-------------------------------------|--5--------------------------5-------|
E|-------------------------------------|-------------------------------------|

  ....................................   C2..................................
E|-----------2--------2----------------|-----------2-----------------2-------|
B|--------2--------2--------2--------2-|--------2--------2--------2--------2-|
G|-----2--------2--------2--------2----|-----2--------2--------2--------2----|
D|-------------------------------------|-------------------------------------|
A|--4--------------------------4-------|--2----------------------------------|
E|-------------------------------------|--------------------5----------------|

  .................. C2.....................................................
E|-----------2-----------------2-------|--2--------2----------2<14>----------||
B|--------2--------2--------2--------2-|--------2--------2-------------------||
G|-----2--------2--------2--------2----|-----2--------2----------------------||
D|-------------------------------------|-------------------------------------||
A|-------------------------------------|-------------------------------------||
E|--4-----------------2----------------|--------------------2----------------||
                        





Comments


Popular Ennio Morricone tabs & chords
Story Of A Soldier Chords
The Wild Bunch Chords
A Fistful Of Dollars Intro Tabs
Chi Mai 1 Tabs
Il Vizio Duzzidere Tabs
Navajo Joe Tabs
Sister Saras Theme Tabs
The Good The Bad And The Ugly 3 Tabs
The Good The Bad The Ugly Tabs
The Piano Crisis Tabs


Song lyrics



↑ Back to top | Tablatures and chords are parodies/interpretations of the original songs. You may use it for private study, scholarship, research or language learning purposes only
© 2014 AZChords.com Contact us | Privacy policy | DMCA | Add/correct tabs | Request tabs | Top 50 tabs