» » »

This Is Me Tabs (ver.1)

Artists:  A B C D E F G H I J K L M N O P Q R S T U V W X Y Z # 

This Is Me Tabs (ver.1)

Emma Roberts
Rating:
5/5 (1 vote)

Tabs too difficult? Try these video lessons and learn fast.
                Song : This is me
Album : Unfabulous and More
Artist : Emma Roberts


Standard Tuning
Electric guitar

Intro
E|-------------------------------------------------------|
B|-------------------------------------------------------|
G|--7-7--x-x---------------------------------------------| 
D|--7-7--x-x----7-7--x-x----x-5-5-x---5-5-5-7------------|
A|--5-5--x-x----7-7--x-x----x-5-5-x---5-5-5-7------------|
E|--------------5-5--x-x----x-3-3-x---3-3-3-5------------|

Verse
E|-------------------------------------------------------|
B|-------------------------------------------------------|
G|--7-7--x-x---------------------------------------------| 
D|--7-7--x-x----x-x--7-x----5-5--x-x----x-x--x-x---------|
A|--5-5--x-x----x-x--7-x----5-5--x-x----x-x--x-x---------|
E|--------------x-x--5-x----3-3--x-x----x-x--x-x---------|


Chorus

E|-------------------------------------------------------|
B|-------------------------------------------------------|
G|--7-7--x-x---------------------------------------------| 
D|--7-7--x-x----7-7--x-x----x-5-5-x---5-5-5-7------------|
A|--5-5--x-x----7-7--x-x----x-5-5-x---5-5-5-7------------|
E|--------------5-5--x-x----x-3-3-x---3-3-3-5------------| X 2

E|-------------------------------------------------------|
B|-------------------------------------------------------|
G|--7-7--x-x---------------------------------------------| 
D|--7-7--x-x----7-7--x-x----5-5-x-x----7-7-x-x-----------|
A|--5-5--x-x----7-7--x-x----5-5-x-x----7-7-x-x-----------|
E|--------------5-5--x-x----3-3-x-x----5-5-x-x-----------|



This is me... yeah

E|-------------------------------------------------------|
B|-------------------------------------------------------|
G|--7-7--x-x---------------------------------------------| 
D|--7-7--x-x----7-7--x-x----x-5-5-x---5-5-5-7------------|
A|--5-5--x-x----7-7--x-x----x-5-5-x---5-5-5-7------------|
E|--------------5-5--x-x----x-3-3-x---3-3-3-5------------|


(w)Wah effect.
               w. w.    w. w.
E|---------|  |-------------------------------|
B|---------|  |-------------------------------|
G|--7-7----|  |-------------7-----------------| 
D|--7-7----|  |-7--5-----7--7-----------------|
A|--5-5----|  |-7--5-----7--5-----------------|
E|---------|  |-5--3-----5--------------------| X4


When you walked into my life
You made me feel so right

I believed in all your love,
But you started holding on to tight

I don't like pretending for you
Keeping track of the lies is too hard to do

Oh, baby let me breath 
Love me or set me free
I don't want you to think you know what I should be
I'm just waiting for you to see
This is me, this is me

If you want to stay by my side
You're gonna have to change your mind

I'm not asking for you, to be my prince
Why can't you see my beauty inside 

Baby if that's to hard to do,
Then I guess I'm sorry not for me 
But for you

Oh baby let me breath 
Love me or set me free
I don't want you to think you know what I should be
I'm just waiting for you to see
This is me, this is me

If you could take a minute
Try to believe 
I swear, you'd see me shine
Can't you see that
This is me

Oh baby let me breath 
Love me or set me free
I don't want you to think you know what I should be
I'm just waiting for you to see
This is me, this is me
Oh baby let me breath 
Love me or set me free

I don't want you to think you know what I should be
I'm just waiting for you to see
That this is me
            
Tabs too difficult? Try these video lessons and learn fast.


comments powered by Disqus
↑ Back to top | Tablatures and chords are parodies/interpretations of the original songs. You may use it for private study, scholarship, research or language learning purposes only