» » »

Emma Roberts, I Wanna Be Tabs (ver.1)

Artists:  A B C D E F G H I J K L M N O P Q R S T U V W X Y Z # 

I Wanna Be Tabs (ver.1)

Emma Roberts Tabs
 Rating:
4.2/5 (5 votes)
I Wanna Be lessons Tabs too difficult? Try these video lessons and learn fast
                Song : I wanna be
Artist : Emma Roberts
Album : Unfabulous and more


E||-----------------------------------------------||
B||-----------------------------------------------||
G||----7-7-7-7----7-7-7-7-------------------------||
D||----7-7-7-7----7-7-7-7-------------------------||
A||----5-5-5-4----4-5-5-5-------------------------||
E||-----------------------------------------------||

P.m.   . . . .    . . . .

Trying to sort it out...
E||-----------------------------------------------||
B||-----------------------------------------------||
G||----5-5-5-7---7-7-7-7--------------------------||
D||----3-3-5-7---7-7-7-7--------------------------||
A||----3-3-3-4---5-5-5-4--------------------------||
E||-----------------------------------------------||

P.m.   . . . .    . . . .

::Pre Chorus::

E||---3--------5----5----------||
B||---3--------7----5----------||
G||---4--------7----6----------||
D||---5--------7----7----------||
A||---5--------5----7----------||
E||---3-------------5----------||

E||---3--------5---------------||
B||---3--------5---------------||
G||---4--------6---------------||
D||---5--------7----7-7--------||
A||---5--------7----7-7--------||
E||---3--------5----5-5--------||


::Chorus::(Dist)

E||----------------------------||
B||----------------------------||
G||---7------------------------||
D||---7----7----5----7---------||
A||---5----7----5----7---------||
E||--------5----3----5---------||

E||----------------------------||
B||----------------------------||
G||---7------------------------||
D||---7----5----5----7---------||
A||---5----5----5----7---------||
E||--------3----3----5---------||


Can't u see...

E||----------------------------||
B||----------------------------||
G||---5------------------------||
D||---5--------7-7-------------||
A||---3--------7-7-------------||
E||------------5-5-------------||

i wanna be...(end of chorus)

E||----------------------------||
B||----------------------------||
G||---7------------------------||
D||---7---7--7---5-5-----------||
A||---5---7--7---5-5-----------||
E||-------5--5---3-3-----------|| X2


::Bridge::
a journey Leading down the road to no where...

E||----------------------------||
B||----------------------------||
G||---5----------7-------------||
D||---5----------7-------------||
A||---3----------5-------------||
E||----------------------------|| X2

E||----------------------------||
B||----------------------------||
G||--------------5-------------||
D||---5----------5----------7--||
A||---5----------3----------7--||
E||---3---------------------5--||

E||----------------------------||
B||----------------------------||
G||----------------------------||
D||---7-7-7-7-7-7--------------||
A||---7-7-7-7-7-7--------------||
E||---5-5-5-5-5-5--------------||

After the bridge the chorus is coming up with an acoustic guitar, play this one

    D      A      G     A

E||--2-----0-----3-----0-------||
B||--3-----2-----3-----2-------||
G||--2-----2-----0-----2-------||
D||--0-----2-----0-----2-------||
A||--0-----0-----2-----0-------||
E||--------------3-------------||



I took my time 
Learning my lines
Trying to sort it out
This life that I lead
Its trapped me naive
I wanna scream out loud
Leave the past behind
Now is my time

I wanna see
I wanna Dream
I wanna live a life of fantasy
I wanna fly
I want my life to be much more than just an alibi
Can't you see
I wanna be
I wanna be
(yeah)

Running in place
Been out of the race
Before it even started
I am stuck at the gate
Don't make me wait
Swimming in a sea uncharted
Fly:. sail...
A starry night
First star I see tonight
I wish for kiss goodbye
Now I am flying high

I wanna see
I wanna Dream
I wanna live a life of fantasy
I wanna fly
I want my life to be much more than just an alibi
I wanna see
I wanna Dream
I wanna live a life of fantasy
I wanna fly
I want my life to be much more than just a journey 
Leading down the road to no where
Future fading masquerading wonders
And that's when I begin to dream
(To dream)

I wanna see
I wanna Dream
I wanna live a life of fantasy
I wanna fly
I want my life to be much more...
I wanna see (I wanna see)
I wanna Dream (I wanna dream)
I wanna live a life of fantasy
I wanna fly
I want my life to be much more than just an alibi
Can't you see
I wanna be
            
Submit corrections

comments powered by Disqus
↑ Back to top | Emma Roberts Tabs for I Wanna Be. Lyrics for acoustic guitar and electric guitar. Tablatures and chords are parodies/interpretations of the original songs. You may use it for private study, scholarship, research or language learning purposes only