>
 >
Dummy

Dummy Guitar Tabs

Emma Roberts - Dummy chords, tabs, tablatures, lyrics

Guitar lessons | Add/correct | Request | Top 50 tabs Artists:  A B C D E F G H I J K L M N O P Q R S T U V W X Y Z 0-9

Dummy Guitar Tabs – Emma Roberts

CD, Sheet music, Poster

Do you like Dummy? Share with your friends now
ChordsTabsUkulele



Standard Tuning(EADGBE)

Guitar 1- Acoustic 
Guitar 2- use a little distorted effect or just an electric guitar.



::Intro::

Guitar 2

E||-----------------------------------------------||
B||-----------------------------------------------||
G||-------------8-8-8-8---------------------------||
D||---5-5-5-5---8-8-8-8---8-8-8-8---3-3-3-3-------||
A||---5-5-5-5---6-6-6-6---8-8-8-8---3-3-3-3-------||
E||---3-3-3-3-------------6-6-6-6---1-1-1-1-------||

E||-----3--1----------------------------------------||
B||---------------4--3--------4--3------------------||
G||--3---------3-----------3--------5--3--2--3------||
D||-------------------------------------------------||
A||-------------------------------------------------||
E||-------------------------------------------------|| X 2


::Verse::(Guitar 1)

    Gm           D#         Bb         F

E||---3----------3----------1----------1---------------||
B||---3----------4----------3----------1---------------||
G||---3----------3----------3----------2---------------||
D||---5----------5----------3----------3---------------||
A||---5----------x----------1----------3---------------||
E||---3----------3----------1----------1---------------|| X 4


    Cm                      D#
E||--3----------------------6----------------------------||   >>>
B||--4----------------------8----------------------------||     >>
G||--5----------------------8----------------------------||     >> 
D||--5----------------------8----------------------------||     >>
A||--3----------------------6----------------------------||     >>
E||--3----------------------6----------------------------||     >>
                                                                >>
(Guitar 2)                                                        >>>     end of each verse
    Cm                      D#                                  >>
E||------------------------------------------------------||     >>
B||------------------------------------------------------||     >>
G||--5-5-5-5-5-5-5-5--------8-8-8-8----------------------||     >> 
D||--5-5-5-5-5-5-5-5--------8-8-8-8----------------------||     >>
A||--3-3-3-3-3-3-3-3--------6-6-6-6----------------------||     >>
E||------------------------------------------------------||   >>>


::Chorus::

(Guitar 2)
E||-----------------------------------------------||
B||-----------------------------------------------||
G||-------------8-8-8-8---------------------------||
D||---5-5-5-5---8-8-8-8---8-8-8-8---3-3-3-3-------||
A||---5-5-5-5---6-6-6-6---8-8-8-8---3-3-3-3-------||
E||---3-3-3-3-------------6-6-6-6---1-1-1-1-------|| X 3

    Cm                      D#                                  
E||-----------------------------------------------||     
B||-----------------------------------------------||     
G||--5-5-5-5-5-5-5-5--------8-8-8-8-8-8-8-8-------||      
D||--5-5-5-5-5-5-5-5--------8-8-8-8-8-8-8-8-------||    
A||--3-3-3-3-3-3-3-3--------6-6-6-6-6-6-6-6-------||    
E||-----------------------------------------------||


::Bridge::

(Guitar 2)
E||-----------------------------------------------||
B||-----------------------------------------------||
G||-----------------------------------------------||
D||---5-5-5-5---4-4-4-4---8-8-8-8---3-3-3-3-------||
A||---5-5-5-5---4-4-4-4---8-8-8-8---3-3-3-3-------||
E||---3-3-3-3---2-2-2-2---6-6-6-6---1-1-1-1-------||


E||-----------------------------------------------||
B||-----------------------------------------------||
G||-------------5-5-5-5---8-8-8-8-8-8-8-8---------||
D||---5-5-5-5---5-5-5-5---8-8-8-8-8-8-8-8---------||
A||---5-5-5-5---3-3-3-3---6-6-6-6-6-6-6-6---------||
E||---3-3-3-3-------------------------------------||




E||-----3--1----------------------------------------||
B||---------------4--3--------4--3------------------||
G||--3---------3-----------3--------5--3--2--3------||
D||-------------------------------------------------||
A||-------------------------------------------------||
E||-------------------------------------------------|| X 2

  Solo

E||------------------------------------------------------------------------------------||
B||--11S13-11-10-----------11-----------13-----13r(15)-13r(15)--13--11--15r(16)~~~-15S-||
G||---------------12-10-12------10S12--------------------------------------------------||
D||------------------------------------------------------------------------------------||
A||------------------------------------------------------------------------------------||
E||------------------------------------------------------------------------------------||


I couldn't catch a ride, I tried so I was walkin'
(started) raining when you called to tell me
You were flaking out again
I only had a buck (not enough to get a latte)
So I sat down at a table and I thought about you instead
I'd have to be a fool to believe every word you said

And I don't wanna be your dummy
I cut the strings and I'm free hunny
I don't want your fast-life or your money or your time
So stuck on yourself its funny
Hanging with you feels so crummy
So I don't wanna be your dummy
Da dummy da dummy

We were walking through the mall
with all the carbon copies
Your showing off screaming on your cell phone
I wonder why I didn't see it then
You spend hours and hours trying to make your hair look sloppy
You spend hundreds of dollars on a tee-shirt you wear
For the week its "in"
Now that were apart I wonder if you miss a thing

And I don't wanna be your dummy
I cut the strings and I'm free hunny
I don't want your fast-life or your money or your time
So stuck on yourself its funny
Hanging with you feels so crummy
So I don't wanna be your dummy
Da dummy da dummy

And if your asking then the last thing
I wanna be is a puppet on a string
You're unbelievable- its inconceivable
If you think I'll let you make a fool of me

And I don't wanna be your dummy
I cut the strings and I'm free hunny
I don't want your fast-life or your money or your time
So stuck on yourself its funny
Hanging with you feels so crummy
So I don't wanna be your dummy
This dummy's no dummy





Comments


Popular Emma Roberts tabs & chords
94 Weeks (Metal Mouth Freak) Chords
94 Weeks (Metal Mouth Freak) 1 Chords
I Wanna Be Chords
Mexican Werstler Chords
Mexican Wrestler Chords
94 Weeks (Metal Mouth Freak) Tabs
94 Weeks Metal Mouth Freak Ukulele
I Wanna Be Ukulele
Island In The Sun Ukulele
Mexican Werstler Ukulele


Song lyrics



↑ Back to top | Tablatures and chords are parodies/interpretations of the original songs. You may use it for private study, scholarship, research or language learning purposes only
© 2014 AZChords.com Contact us | Privacy policy | DMCA | Add/correct tabs | Request tabs | Top 50 tabs