» » »

94 Weeks (Metal Mouth Freak) Tabs (ver.1)

Artists:  A B C D E F G H I J K L M N O P Q R S T U V W X Y Z # 

94 Weeks (Metal Mouth Freak) Tabs (ver.1)

Emma Roberts
Rating:
0/5 (0 votes)

Hard to play? Try these video lessons and learn fast.
                
Standard Tuning(EADGBE)

play the first, 3 low notes of each 1st strum of a chord.(accept D)
Its really hard to tab the chorus becoz of the effect(high tone)used.

:Verses:

     EM7     G     Cadd9    EM7     G       Cadd9         D         D

E|---3------3-------3-------3-------3--------3--------0-2-3-2---0-2-3-3--2-2-|
B|---3------3-------3-------3-------3--------3--------3-3-3-3---3-3-3-3--3-3-|
G|---0------0-------0-------0-------0--------0--------2-2-2-2---2-2-2-2--2-2-|
D|---2------0-------2-------2-------0--------2--------0-0-0-0---0-0-0-0--0-0-|
A|---2------2-------3-------2-------2--------3--------0-0-0-0---0-0-0-0--0-0-|
E|---0------3------(0)------0-------3-------(0)------------------------------|




My life is over, 
at least for 94 weeks
I look like some metal mouth freak 
And that's a long time

I wanna go to the party 
But I don't wanna be seen
I wish it was Halloween
And I could wear a mask




:Chorus:
Clean electric guitar

E|------3------3----3------3----3-----3-----3----3----3-------------------|
B|------------------------------------------------------------------------|
G|------------------------------------------------------------------------|
D|------------------------------------------------------------------------|
A|---------------------------------------3----3----3----------------------|
E|---0-----0-----0------3----3-----3--------------------------------------| X2

E|------2-----2-----3------3-----5------3--------0--------2---------------|
B|------------------------------------------------------------------------|
G|------------------------------------------------------------------------|
D|---0-----0-----0-----0------0------0------0---------0-------------------|
A|------------------------------------------------------------------------|
E|------------------------------------------------------------------------|

Woe is me, life will have to wait,
Until my teeth are straight and that's a long time
Can't you see life will have to wait,
until again I'm looking great and that's a long time

Life is over, at least for 600 days
By then you'll be far away
And you'll like another

Then I see you standing there, you make me want to smile
But if I open my lips too wide, would you still want me

Woe is me, life will have to wait,
Until my teeth are straight and that's a long time
Can't you see life will have to wait,
until again I'm looking great and that's a long time

That's a long time

Life's not over I was stupid and scared 
Worried about who cared that I have braces 
Now I see, life wont have to wait and I wont hesitate, its a good time
Can't you see life is full of surprise You can't let it pass you by; its a good time

Yeah its a good time
            
Hard to play? Try these video lessons and learn fast. | Correct




comments powered by Disqus
↑ Back to top | Tablatures and chords are parodies/interpretations of the original songs. You may use it for private study, scholarship, research or language learning purposes only