» » »

The Maid Needs A Maid Tabs (ver.1)

Artists:  A B C D E F G H I J K L M N O P Q R S T U V W X Y Z # 

The Maid Needs A Maid Tabs (ver.1)

Emily Haines And The Soft Skeleton
Rating:
5/5 (4 votes)

Hard to play? Try these video lessons and learn fast.
                erm I know this is not absolutely perfect, but sounds pretty close to me.
x
christina


Fmaj7                C           F
Bros before Ho's disagree on the sidelines
Fmaj7                C           Gmi
Fight for a fee, the man needs a maid
    A            Dmi
The maid needs a maid

   C           F

e-0-1-3-0---0-----------------------|
B---------3-----------1-3-----------|
G-------------2-2---------0-2-2-2-2-|
D-----------------------------------|
A-----------------------------------|
E-------------1---1---------1-1-----|

  C

e-0-1-3-0---0-----------------------|
B---------3-----------1-3-----------|
G-------------0-0-------------------|
D-------------------------3-2-2-2-2-|
A-------------3---3-------3-3-3-3-3-|
E-----------------------------------|

  C           F

e-0-1-3-0---0------------------------|
B---------3-----------1-3------------|
G-------------2-2---------0-2-2------|
D---------------------------3-3------|
A--------------------------------5-5-|
E-------------1---1-------1-1-1------|

  C

e-0-1-3-0---0------------------------------|
B---------3-----------1-3--------------0-1-|
G-------------0-0-------------------0-2----|
D-------------------------3-2-0-2-3--------|
A-------------3---3---------3--------------|
E------------------------------------------|

Fmaj7                    C              F
Bros before ho's, it's a rule, read the guidelines
Fmaj7                C             Gmi
You trouble me, your breasts heave when you sing
     A                           Dmi     F    C Dm7(b5)
Your mouth should be working for me, for free

F                                      C
Sewing up the folds, because I've been laid out
      Dm7(b5)
Would you put on the fire for me,
F                              C
Draw the bath and remind me to eat?
G
You won't need a real job,
G
You won't need a real job,
        F               C
Because I would love to pay for you
          Abdim/F            Am G
You could be a good wife to me
F               C
I would love to pay for you
    G                C
You are the maid for me

  C           F

e-0-1-3-0---0-----------------------|
B---------3-----------1-3-----------|
G-------------2-2---------0-2-2-2-2-|
D-----------------------------------|
A-----------------------------------|
E-------------1---1---------1-1-1-1-|

  C

e-0-1-3-0---0-----------------------|
B---------3-----------1-3-----------|
G-------------0-0-------------------|
D-------------------------3-2-2-2-2-|
A-------------3---3-------3-3-3-3-3-|
E-----------------------------------|

  C           F

e-0-1-3-0---0------------------------|
B---------3-----------1-3------------|
G-------------2-2---------0-2-2------|
D---------------------------3-3------|
A--------------------------------5-5-|
E-------------1---1-------1-1-1------|

  C

e-0-1-3-0---0-----------------|
B---------3-----------1-3-----|
G-------------0-0-------------|
D-------------------------3-2-|
A-------------3---3---------3-|
E-----------------------------|


Abdim/F  [x 2 0 1 0 1]
Dm7(b5)  [x x 0 1 1 1]
            
Hard to play? Try these video lessons and learn fast. | Correct




comments powered by Disqus
↑ Back to top | Tablatures and chords are parodies/interpretations of the original songs. You may use it for private study, scholarship, research or language learning purposes only