>
 >
Telethon

Telethon Guitar Tabs

Emily Haines And The Soft Skeleton - Telethon chords, tabs, tablatures, lyrics

Guitar lessons | Add/correct | Request | Top 50 tabs Artists:  A B C D E F G H I J K L M N O P Q R S T U V W X Y Z 0-9

Telethon Guitar Tabs – Emily Haines And The Soft Skeleton

CD, Sheet music, Poster

Do you like Telethon? Share with your friends now
Tabs
Emily Haines and the Soft Skeleton - Telethon



Intro/verses

E||----------------------|----------------------|----------------------|
B||--1----1----3----3----|--1----1----3----3----|--1----1----1----0----|
G||--2----2----2----2----|--2----2----2----2----|--0----0----0---------|
D||--2----2----2----2----|--2----2----2----2----|--2----2----2----0----|
A||----------------------|----------------------|--3--------------2----|
E||----------------------|----------------------|----------------------|
 
 

---------------------0---|---------------------0---|----------------------|
--3----3----3------3-----|--3----3----3------3-----|--1----1----1----1----|
--2----2----2------2-----|--2----2----2------2-----|--0----0----0----0----|
--0----0----0------------|--0----0----0------------|--2----2----2----2----|
-----------------0-------|-----------------0-------|--3-------------------|
-------------------------|-------------------------|----------------------|





Pre-chorus + Chorus

E||---------------------|---------------------|---------------------|---------------------|
B||-------1----1--------|-------1----1--------|-------1----1--------|-------1----1--------|
G||--0----0----2--------|--0----0----2--------|--0----0----2--------|--0----0----2--------|
D||--0----2----2--------|--0----2----2--------|--0----2----2--------|--0----2----2--------|
A||--2----3----0--------|--2----3----0--------|--2----3----0--------|--2----3----0--------|
E||--3------------------|--3------------------|--3------------------|--3------------------|
 
 
  
----------------------|------------|----------------------|----------------------|
-------1----1----1----|--1----1----|-------1----1----1----|-------1----1----1----|
--0----0----2----2----|--2----2----|--0----0----2----2----|--0----0----2----2----|
--0----2----2----2----|--2----2----|--0----2----2----2----|--0----2----2----2----|
--2----3----0----0----|--0----0----|--2----3----0----0----|--2----3----0----0----|
--3-------------------|------------|--3-------------------|--3-------------------|
 
 
    
----------------------|----------------------|----------------------|
-------1----1----1----|-------1----1----1----|--1----1----1----1----|
--0----0----2----2----|--0----0----2----2----|--0----0----0----0----|
--0----2----2----2----|--0----2----2----2----|--2----2----2----2----|
--2----3----0----0----|--2----3----0----0----|--3----3----3----3----|
--3-------------------|--3-------------------|----------------------|





CHORDS


         Am                   Asus4
When I'm on will you leave me on

         Am                   Asus4
When I'm on will you leave me on

    C                             G/B  Asus4
And when I'm down will you let me get  under?

     C
Take cover

      G        C     Am
Can't hide without a house

G       C        Am
 Newspapers blow over
 
     G         C        Am
Can't walk past the driveway

        G      C      Am
Without asking for directions

   G       C       Am
So full of stupid questions



         G          C         Am
When the daylight's like fluorescent light

          G       C     Am
I'm gonna take my time, night by night

         G          C         Am
When the daylight's like fluorescent light

G         C       Am              C
I hang my hands over your eyes to hide



         Am                 Asus4
When I'm on will you rescue me?

  Am               Asus4
I watch that telethon

      C                           G/B    Asus4
I got hung up on the word I can't get it over

C
Soldier

         G       C         Am
When she says nothing is enough

             G          C      Am
That doesn't mean don't try to fix it

     G               C     Am
Make plans with your other hand

G         C       Am
Dream without concession


         G          C         Am
When the daylight's like fluorescent light

          G       C     Am
I'm gonna take my time, night by night

         G          C         Am
When the daylight's like fluorescent light

G         C       Am              C
I hang my hands over your eyes to hide



F
Bruised Billy Joel New York state of mind

C
Bruised Billy Joel New York state of mind

F
Bruised Billy Joel New York state of mind

     C           Asus4
Take cover, take pleasure





Chords used:

Am     x0221x
Asus4  x0223x
C      x3201x
G/B    x2000x
G      3200xx





Comments


Popular Emily Haines And The Soft Skeleton tabs & chords
Bottom Of The World Chords
Dog Chords
Pink Chords
Bottom Of The World Tabs
Bottom Of The World Intro Tabs
Doctor Blind Tabs
The Maid Needs A Maid Tabs
Dog Ukulele
Pink Ukulele
Reading In Bed Ukulele


Song lyrics



↑ Back to top | Tablatures and chords are parodies/interpretations of the original songs. You may use it for private study, scholarship, research or language learning purposes only
© 2014 AZChords.com Contact us | Privacy policy | DMCA | Add/correct tabs | Request tabs | Top 50 tabs