» » »

Emily Haines And The Soft Skeleton, Bottom Of The World Tabs (ver.2)

Artists:  A B C D E F G H I J K L M N O P Q R S T U V W X Y Z # 

Bottom Of The World Tabs (ver.2)

Emily Haines And The Soft Skeleton Tabs
Rating:
0/5 (0 votes)
Bottom Of The World lessons Tabs too difficult? Try these video lessons and learn fast
                
Bottom of the world

      Bm   D                 A        Em
Is it true you used to be my friend?
         Bm   D                 A        Em
What did i do? Why didn't I get in to your cool crew?

G                                      F#m
Got a modern loft and a new tattoo with your own name
G                                     F#m
I've got a single room overlooking the highway under the microwave

G    D
For you

F#   G   D
Heart__broken

       F#    G   Bm
I've been for you

      Bm   D                 A        Em
Is it true, you and the other girls, you all stood in a circle
      Bm   D                 A        Em
Sophie left me in a bar at the bottom of the world

G                             F#m
All followers pick a word out around the room
G                                      F#m
I'm on my way, you're always "Remember you, to stay on the move"

      D 
It's true, true

F# G   D
Heart__broken
 
      F#   G  D     
I've been for you
                                    F#   G Bm
You've left me on the bottom of the world

6/8
 (Intro/Verse)                                   
E|------|------|--------|---------||
B|------|------|--------|---------||
G|---2--|---2--|-----0--|0-3------||
D|4-----|4-----|--2----4|----0----||
A|------|------|4---4---|------4-2||
E|------|------|--------|---------||

(Pre-Chorus)                                        
E|---------|--------|----0----|---------||
B|0---3---2|---3---2|--------3|-----3--2||
G|---------|0-------|2--------| 2-------||
D|---------|--------|---------|---------||
A|---------|--------|---------|---------||
E|---------|--------|---------|---------||

(Chorus)              
E|---------------|---------------| ---------------------||
B|---------------|---------------| ---------------------||
G|---0------0----|---0-------0---| ---------------------||
D|4----4--4-----4|4----4--4-----4| 2-4-----0------------||
A|---------------|---------------| -----4------0--------||
E|---------------|---------------| ----------------3---2||
            
Submit corrections

comments powered by Disqus
↑ Back to top | Emily Haines And The Soft Skeleton Tabs for Bottom Of The World. Lyrics for acoustic guitar and electric guitar. Tablatures and chords are parodies/interpretations of the original songs. You may use it for private study, scholarship, research or language learning purposes only