» » »

Gothic Lolita Tabs (ver.2)

Artists:  A B C D E F G H I J K L M N O P Q R S T U V W X Y Z # 

Gothic Lolita Tabs (ver.2)

Emilie Autumn
Rating:
0/5 (0 votes)

Hard to play? Try these video lessons and learn fast.
                (Intro)
Very simple so to make it more like the 
actual song you should try having an 
effects pedal and using it on the last 
section where it fades into the rest of 
the song.



e----------------------------------------|
b----------------------------------------|
g---2--5-5-------5-5----2--5-5-------5-5-|
d-------------2-------------------2------|
a----------------------------------------|
e----------------------------------------|


e--------------------------------------------|
b-------3-3------3-3------3-3-------3-3------|
g---2------------------1----------------1----|
d-------------2------------------2-----------|
a--------------------------------------------|
e--------------------------------------------|


e---------------------|
b--3-3-------3-3------|
g----------------1----|
d---------2-----------|
a---------------------|
e---------------------|    X 4

Have fun and remember

Emilie Autumn is amazing!!!
            
Hard to play? Try these video lessons and learn fast. | Correct




comments powered by Disqus
↑ Back to top | Tablatures and chords are parodies/interpretations of the original songs. You may use it for private study, scholarship, research or language learning purposes only