>
 >
When God Was Sleeping

When God Was Sleeping Guitar Tabs

Emil Bulls - When God Was Sleeping chords, tabs, tablatures, lyrics

Guitar lessons | Add/correct | Request | Top 50 tabs Artists:  A B C D E F G H I J K L M N O P Q R S T U V W X Y Z 0-9

When God Was Sleeping Guitar Tabs – Emil Bulls

CD, Sheet music, Poster

Do you like When God Was Sleeping? Share with your friends now
Bass TabsTabs

REAL FANS SUPPORT BANDS BY PURCHASING THEIR CDS!

Tuning: Drop C


<<<>>>
PLEASE LEAVE A COMMENT IF U WANT THIS TAB IN ENGLISH!!!
<<<>>>


. = Palm-Muted
^ = Vibrato
b = bend
~ = klingen lassen (was auch immer das auf englishc heißt)

Intro: (keine Abweichung in den Gitarren)
D----------------------------------------------------------------------|
A----------------------------------------------------------------------|
F----------------------------------------------------------------------|
C----------10~------------10~-----------10~------------10/11-----------| x3
G--0-0-0---10~----0-0-0---10~----0-0-0--10~----0-0-0---10/11-----------|
C--0-0-0---10~----0-0-0---10~----0-0-0--10~----0-0-0---10/11-----------|
   . . .          . . .          . . .         . . .

D------------------------------------------------------------------------|
A------------------------------------------------------------------------|
F------------------------------------------------------------------------|
C----------10~------------10~--------------------------------------------|
G--0-0-0---10~----0-0-0---10~--------------------------------------------|
C--0-0-0---10~----0-0-0---10~---13\12\11\10\9\8\7\6\5\4\3\2\1\0----------|
   . . .          . . .         ...............................


Die letzte 10 kann auch auf die 11 gebendet werden (also 10b11)

Verse: Guitar 1
D--------------------------------------------------------------------------|
A--------------------------------------------------------------------------|
F--------------------------------------------------------------------------|
C--8-8-8-8--------5-5-5-5---------8-8-8-8-----(frei,-nach-Wahl-0-oder-5)---|
G--8-8-8-8--------5-5-5-5---------8-8-8-8-----(frei,-nach-Wahl-0-oder-5)---|
C--8-8-8-8--------5-5-5-5---------8-8-8-8-----(frei,-nach-Wahl-0-oder-5)---|


Guitar 2
D----------------------------------------------------------------------------|
A----------------------------------------------------------------------------|
F----------------------------------------------------------------------------|
C---10-10-10-10---12-12-12-12-12-12-12-12--------7-7-7-7--8-8-8-8--7-7-7-7---|
G----------------------------------------------------------------------------|
C----------------------------------------------------------------------------|


D-----------------------------------------------|
A-----------------------------------------------|
F-----------------------------------------------|
C---10-10-10-10---12-12-12-12-12-12-12-12-------|
G-----------------------------------------------|
C-----------------------------------------------|

D-------------------------------------------------------------|
A-------------------------------------------------------------|
F-------------------------------------------------------------|
C-------------------------------------------------------------|
G------------5------------------------------------------------|
C---8-7--0------0---8-7--0----5--0-0---3^----0--2^p0----------|
    . .  .   .  .   . .  .    .  . .

Eine 3. Gitarre spielt den Part der 2. Gitarre nur andersherum (erst tief, dann hoch)


Pre-Chorus: (keine Abweichung zwischen den Gitarren)
D------------------------------------------------------------------------|
A------------------------------------------------------------------------|
F--------------------------------------------------------------7---------|
C----------10~------------10~-----------10~------------10------x-x16-----|
G--0-0-0---10~----0-0-0---10~----0-0-0--10~----0-0-0---10------5---------|
C--0-0-0---10~----0-0-0---10~----0-0-0--10~----0-0-0---10------0---------|
   . . .          . . .          . . .         . . .


Chorus: Guitar 1
D-------------------------------------------------------------------------|
A-------------------------------------------------------------------------|
F-------------------------------------------------------------------------|
C---0-0-0---0-0-0---0-0-0---0-0-0------7-7-7---7-7-7---7-7-7---7-7-7------|
G---0-0-0---0-0-0---0-0-0---0-0-0------7-7-7---7-7-7---7-7-7---7-7-7------|
C---0-0-0---0-0-0---0-0-0---0-0-0------7-7-7---7-7-7---7-7-7---7-7-7------|

D----------------------------------------------------------------------------|
A----------------------------------------------------------------------------|
F----------------------------------------------------------------------------|
C---8-8-8---8-8-8---8-8-8---8-8-8---10-10-10---10-10-10---8-8-8---8-8-8------|
G---8-8-8---8-8-8---8-8-8---8-8-8---8--8--8----8--8--8----8-8-8---8-8-8------|
C---8-8-8---8-8-8---8-8-8---8-8-8---8--8--8----8--8--8----8-8-8---8-8-8------|


Guitar 2
D-----------------------------------------------------------------------------|
A-----------------------------------------------------------------------------|
F--19-19-19------14-14-14------15-15-15------17-17-17-----15-15-15---10-10-10-|
C--x--x--x--x4---x--x--x--x4---x--x--x--x4---x--x--x--x2--x--x--x----x--x-x---|
G--17-17-17------12-12-12------13-13-13------15-15-15-----13-13-13---8--8--8--|
C-----------------------------------------------------------------------------|


Interlude:
D------------------|
A------------------|
F----17------------|
C----x---x16-------|
G----15------------|
C------------------|

REPEAT [][] VERSE [][]  PRE-CHORUS [][]  CHORUS  [][]


Break-Down: (Keine Abweichung zwischen den Gitarren)
D-----------------------------------------------------------------------|
A-----------------------------------------------------------------------|
F-----------------------------------------------------------------------|
C-----------------------------------------------------------------------|
G---0-0-0---0-0-0---0-0-0---0-0-0---------------------------------------|
C---0-0-0---0-0-0---0-0-0---0-0-0---0-2-2---2-3-3---3-5-5--5-7-7\-------|
    . . .   . . .   . . .   . . .


Bridge: Guitar 1
D-----------------------------------------------------------------|
A-----------------------------------------------------------------|
F-----------------------------------------------------------------|
C-----------------------------------------------------------------| x2
G---8-------5-------8---------------------------------------------|
C---8-x16---5-x16---8-x16---0-2-2---2-3-3---3-5-5---5-7-7---------|
    .       .       .

D--------------------------------------------------------------|
A--------------------------------------------------------------|
F--------------------------------------------------------------|
C--------------------------------------------------------------|
G------------------------------------0-0-0---0-0-0---0-0-0~----|
C---0-2-2---2-3-3---3-5-5---5-7-7----0-0-0---0-0-0---0-0-0~----|
                                     . . .   . . .   . . .

Guitar 2: (mit diesem Teil bin ich mir nich sicher, er ist aber auhc kaum zu hören... er 
ungefähr so:)

D-------------------------------------------------------------------------|
A--------------15----------------------------------15---------------------|
F--14-15-14-15-----15-14-15---x2------12-14-12-14------14-12-14--x2-------|
C-------------------------------------------------------------------------|
G-------------------------------------------------------------------------|
C-------------------------------------------------------------------------|
(Der Part, wo die 2. Gitarre tapped, is für mich nich raushörbar :S)


REPEAT CHORUS


Outro-Chorus:
Beide Gitarren spielen die Akkorde einfach durch, ganz ohne Pausen

Das wars auch schon, ich hoffe es hat gefallen!
Bitte rated, hinterlasst Kommentare und verbessert mich ;D

Cheers...





Comments


Popular Emil Bulls tabs & chords
Not Tonight Josephine Chords
The Knight In Shining Armour Chords
These Are The Days Chords
Friday Night Tabs
Its High Time Tabs
Style School Tabs
Style School 2 Tabs
This Day Tabs
These Are The Days Ukulele
Worlds Apart Ukulele


Song lyrics



↑ Back to top | Tablatures and chords are parodies/interpretations of the original songs. You may use it for private study, scholarship, research or language learning purposes only
© 2014 AZChords.com Contact us | Privacy policy | DMCA | Add/correct tabs | Request tabs | Top 50 tabs