>
 >
These Are The Days

These Are The Days Chords

Emil Bulls - These Are The Days chords, tabs, tablatures, lyrics

Guitar lessons | Add/correct | Request | Top 50 tabs Artists:  A B C D E F G H I J K L M N O P Q R S T U V W X Y Z 0-9

These Are The Days Chords – Emil Bulls

CD, Sheet music, Poster

Do you like These Are The Days? Share with your friends now
ChordsUkulele

REAL FANS SUPPORT BANDS BY PURCHASING THEIR CD'S!!!


Tuning: Standard

. = Palm-Muted
~ = hold note
^ = vibrate
p = pull off
h = hammer on
/ = slide up
\ = slide down



Chords:
    C#m    A     B    Abm    E    F#m
E----4-----5-----7-----4-----0-----2---|
B----5-----5-----7-----4-----0-----2---|
G----6-----6-----8-----4-----1-----2---|
D----6-----7-----9-----6-----2-----4---|
A----4-----7-----9-----6-----2-----4---|
E----------5-----7-----4-----0-----2---|


Wiedermal ein tab auf nachfrage... Falls also immernoch nachfrage besteht, schreib mir 
bitte an die
oben angegebene email addresse ;D
Yep. Ach ja und im verse gibts nur einen akkord, also schreib ich ihn nur einmal hin 
und tab den
Riff :D Viel Spa


Verse Riff:
E--------------------------------------------------|
B----------------5---------------------------------|
G--------------6-----------------------------------|
D-------2-4/6-------------------------------------|
A---2/4--------------------------------------------|
E--------------------------------------------------|

Pre-Chorus Riff:
E---12-x16---7-x8---7-x8-----12-x8---7-x8---12-x8---7-x8-------|
B---14-------9------7--------14------9------14------9----------|
G--------------------------------------------------------------|
D-------------------------------------------------------------|
A--------------------------------------------------------------|
E--------------------------------------------------------------|

Interlude Riff:
E-------------------------------------------------|
B-------------------------------------------------|
G---6--------8--------9-------11------13----------|
D---x-x16----xx16----x-x8----x--x8---x--x16------|
A---4--------6--------7-------9-------11----------|
E-------------------------------------------------|



E---------------------------------------------------------------|
B-------------{-}-<..-x15---------------------------------------|
G---6--------4-6--------5-------8-------9-------8-------6-------|
D---x-x16----xx-x15----x-x8----x-x8----x-x8----x-x8----x-------|
A---4--------2-4--------3-------6-------7-------6-------4-------|
E---------------------------------------------------------------|


Riff im letzten Verse:
1. Gitarre:
E---12-x16---7-x8---7-x8-----12-x8---7-x8---12-x8---7-x8-------|
B---14-------9------7--------14------9------14------9----------|
G--------------------------------------------------------------|
D-------------------------------------------------------------|
A--------------------------------------------------------------|
E--------------------------------------------------------------|

2. Gitarre:
E-------4-----4-----------2-----2-----------0-----0-----------0-----0------|
B-----5---5-----5-------4---4-----4-------2---2-----2-------2---2-----2----|
G---6-------6---------4-------4---------2-------2---------2-------2--------|
D-------------------------------------------------------------------------|
A--------------------------------------------------------------------------|
E--------------------------------------------------------------------------|

Outro Riff:
E----------------------------------------------------------------------|
B----------------------------------------------------------------------|
G---13-13-13-13-13--13-13-13-13-13--13-13-13-13-13--13-13-13-13-13-----|
D---x--x--x-x--x---x--x--x--x--x---x--x--x--x--x---x--x--x--x--x------|
A---11-11-11-11-11--11-11-11-11-11--11-11-11-11-11--11-11-11-11-11-----|
E----------------------------------------------------------------------|



C#m
When the moon and I are talking

Down by the riverside

The old man and me alone

When I hear the gentle whistling


And the scent of the summer feels so intense


C#m           B   Abm    A
These are the days    I remember you

Singing our songs to me


C#m              A
Oh these are the days
Abm        C#m
I remember you
E           A
Celebrating life
         Abm   E
Like the world   was yours


         C#m
When the walls come tumbling down
        A
And Im feeling down and out
       C#m                  A    F#m
I just open up a sixpack of memories
  C#m
I light a cigarette grab my best friend jack and
     C#m                                  A          F#m
Lose myself in the warm distortion thats on my stereo


C#m           B   Abm    A
These are the days    I remember you

Singing our songs to me


C#m              A
Oh these are the days
Abm        C#m
I remember you
E           A
Celebrating life
         Abm   E
Like the world   was yours


>>>Interlude Riff<<<


Im floating
C#m    B                A
   Im floating home to you
   C#m                   B
My wooden verb heartbeat gives me the creeps
  A
Tonight Im coming home to you


C#m              A
Oh these are the days
Abm        C#m
I remember you
E           A
Celebrating life
         Abm   E
Like the world   was yours

C#m              A
Oh these are the days
Abm        C#m
I remember you
E           A
Celebrating life
         Abm   E
Like the world   was yours



und das wars auch schon... :D  Bitte bewerten, kommentieren und mich gerne verbessern :O

Cheers...





Comments


Popular Emil Bulls tabs & chords
Leaving You With This Bass Tabs
Cocoon Chords
Between The Devil And The Deep Blue Sea Tabs
Friday Night 1 Tabs
I Don't Belong Here Tabs
Newborn Tabs
Revenge Tabs
This Day Tabs
These Are The Days Ukulele
Worlds Apart Ukulele


Song lyrics



↑ Back to top | Tablatures and chords are parodies/interpretations of the original songs. You may use it for private study, scholarship, research or language learning purposes only
© 2014 AZChords.com Contact us | Privacy policy | DMCA | Add/correct tabs | Request tabs | Top 50 tabs