» » »

Smells Like Sex And R´N´R Tabs (ver.1)

Artists:  A B C D E F G H I J K L M N O P Q R S T U V W X Y Z # 

Smells Like Sex And R´N´R Tabs (ver.1)

Emil Bulls
Rating:
0/5 (0 votes)

Hard to play? Try these video lessons and learn fast.
                Emil Bulls - Smells like Rock n Roll (Angel delivery service)


8/25/01



Tuning: 3 steps down to C#,F#,B,e,g#,c#



Note:
. - stop sound/break
p.m. - palm muted


Intro:

c#:----------------------------------------------------
g#:-----------------------------------------------------
e :----------------------------------------------------
B :----------------------------------------------------
F#:----7-6--6--6--6--6----------7-6--6--6--6-----------
C#:----5/4-04-04-04-04----------5/4-04-04-04-----------


prechorus:

c#:----------------------------------------------------
g#:-----------------------------------------------------
e :----------------------------------------------------
B :-----7-6--76--76-76-76-----7-6--76-6--4~--------------------
F#:-----7-6--76--76-76-76-----7-6--76-6--4~-----------------
C#:-----5-4--54--54-54-54-----5-4--54-4--2~----------------

chorus:

c#:-----------------------------------------
g#:------------------------------------------
e :-----------------------------------------
B :---7--7-7---1010--1010-7------------------------------
F#:---5--7-7---8-8---1010-5----------------------------
C#:---5--5-5---8-8---8-8--5--------------------------



end of the first chorus:

c#:---------------------------------------------------
g#:--------------------------------------------------
e :--------------------------------------------------
B :--7/6.--66.--6.-------------------------------------------
F#:--7/6.--66.--6.-----------------------------------------
C#:--5/4.--44.--4.----------------------------------


Bridge: hit the high strings above the 1st fret !!


Outro:

c#:---------------------------------------------------
g#:--------------------------------------------------
e :--------------------------------------------------
B :--7/6---6/7--------------------------------------------
F#:--7/6---6/7---------------------------------
C#:--5/4-x-4/5-------------------------------------------
_____________________________________________________________________
            
Hard to play? Try these video lessons and learn fast. | Correct




comments powered by Disqus
↑ Back to top | Tablatures and chords are parodies/interpretations of the original songs. You may use it for private study, scholarship, research or language learning purposes only