» » »

Emil Bulls, Nothing In This World Tabs (ver.1)

Artists:  A B C D E F G H I J K L M N O P Q R S T U V W X Y Z # 

Nothing In This World Tabs (ver.1)

Emil Bulls Tabs
 Rating:
4.7/5 (13 votes)
Nothing In This World lessons Tabs too difficult? Try these video lessons and learn fast
1
                
REAL FANS SUPPORT BANDS BY PURCHASING THEIR CDS!!!


. = Palm-Muted
~ = hold note
^ = vibrate
p = pull off
h = hammer on
/ = slide up
\ = slide down


Tuning: Drop C   (kann auch Drop A# gespielt werden, ich finds so leichter)

"""Intro"""
Guitar 1
E-------------------------------------------------|
B-------------------------------------------------|
G-------------------------------------------------|
D-----------------------------------------x4------|
A----0-0---0--0----0-0---0--0---0-0-0-------------|
E----0-0---0--0----0-0---0--0---0-0-0-------------|
     . .   .  .    . .   .  .   . . .

Guitar 2
E------12---------12--------12--------12--------12--------12--------|
B---------13---------13------------------13--------13---------------|
G---14-------14---------14---------14-------14--------14------------|
D-------------------------------------------------------------------|
A-------------------------------------------------------------------|
E-------------------------------------------------------------------|

"""Verse I"""  Clean   0:08
Guitar 1
E--------------------------------------------------------------------------|
B----5~----x-5~-------3~----x-1~-------5~----x-5~-------3~-------3~--------|
G----5~----x-5~-------2~----x-0~-------5~----x-5~-------2~-------2~--------|
D----3~----x-3~-------0~----x-2~-------3~----x-3~-------0~-------0~--------|
A----3~----x-3~-------0~----x-3~-------3~----x-3~-------0~-------0~--------|
E----3~----x-3~-------0~----x-x--------3~----x-3~-------0~-------0~--------|


Guitar 2    Strummt mit diesen Akkorden
E-------------------------------------------------------|
B-----5-----3-----1----------5-----3--------------------|
G-----5-----2-----0----------5-----2--------------------|
D-----3-----0-----2----------3-----0--------------------|
A-------------------------------------------------------|
E-------------------------------------------------------|

"""Interlude"""  0:25
E--------------------------------------------------------------------------|
B--------------------------------------------------------------------------|
G--------------------------------------------------------------------------|
D--------------------------------------------------------------------------|
A---3-3---5-----3------3--3---3-5------3-3---5-----3------3--3---3-5-------|
E---3-3------3------5--3--3---3-5------3-3------3------5--3--3---3-5-------|

E-------------------------------------------------------|
B-------------------------------------------------------|
G-------------------------------------------------------|
D-------------------------------------------------------|
A---0-0-0-0-0-0-0-0---2---0-0-0-0-0-0-(0)---------------|
E---0-0-0-0-0-0-0-0---2---0-0-0-0-0-0-(0)---------------|
    . . . . . . . .       . . . . . . (.)

"""Verse II""""   0:34
Guitar 1
E------12---------12--------12--------12--------12--------12--------|
B---------13---------13------------------13--------13---------------|
G---14-------14---------14---------14-------14--------14------------|
D-------------------------------------------------------------------|
A-------------------------------------------------------------------|
E-------------------------------------------------------------------|

E-------10---------10--------10---------10-------10--------10-----------|
B----------10---------10-------------------10-------10------------------|
G----7---------7----------7----------7--------7--------7----------------|
D-----------------------------------------------------------------------|
A-----------------------------------------------------------------------|
E-----------------------------------------------------------------------|


Guitar 2    Kann auch ganz gut der Bass spielen...
E-----------------------------------------------------------------------|
B-----------------------------------------------------------------------|
G-----------------------------------------------------------------------|
D-----------------------------------------------------------------------|
A---------3-3/--8---8-8---7--7-----5--5-5----7--7----3--3---5-5---------|
E----3-3----------------------------------------------------------------|

E---------------------------------------------------------------------|
B---------------------------------------------------------------------|
G---------------------------------------------------------------------|
D---------------------------------------------------------------------|
A-----------1--3---5---5-5---3--3----1--1---0--0----------------------|
E----0--0-------------------------------------------5--5---7--7-------|

E-----------------------------------------------------------------------|
B-----------------------------------------------------------------------|
G-----------------------------------------------------------------------|
D-----------------------------------------------------------------------|
A----------3-3/---8---8-8---7--7----10--10----8--8---7--7---8--8--------|
E-----3-3---------------------------------------------------------------|

E---------------------------------------------------------------------|
B---------------------------------------------------------------------|
G---------------------------------------------------------------------|
D---------------------------------------------------------------------|
A-----------1--3---5---5-5---3--3----1--1---0--0----------------------|
E----0--0-------------------------------------------5--5---7--7-------|

"""Pre-Chorus"""    0:51
E--------------------------------------------------------------------------|
B--------------------------------------------------------------------------|
G--------------------------------------------------------------------------|
D--------------------------------------------------------------------------|
A---3-3---5-----3------3--3---3-5------3-3---5-----3------3--3---3-5-------|
E---3-3------3------5--3--3---3-5------3-3------3------5--3--3---3-5-------|

E-------------------------------------------------------|
B-------------------------------------------------------|
G-------------------------------------------------------|
D-------------------------------------------------------|
A---0-0-0-0-0-0-0-0---2---0-0-0-0-0-0-(0)---------------|
E---0-0-0-0-0-0-0-0---2---0-0-0-0-0-0-(0)---------------|
    . . . . . . . .       . . . . . . (.)

E--------------------------------------------------------------------------|
B--------------------------------------------------------------------------|
G--------------------------------------------------------------------------|
D--------------------------------------------------------------------------|
A---3-3---5-----3------3--3---3-5------3-3---5-----3------3--3---3-5-------|
E---3-3------3------5--3--3---3-5------3-3------3------5--3--3---3-5-------|

E----------------------------------------------------------------|
B----------------------------------------------------------------|
G----------------------------------------------------------------|
D----10-10-10-10-10-10-10-10--10-10-10-10-10-10-10-10------------|
A----10-10-10-10-10-10-10-10--10-10-10-10-10-10-10-10------------|
E----10-10-10-10-10-10-10-10--10-10-10-10-10-10-10-10------------|

"""Chorus"""   1:08
E--------------------------------------------------------------------------|
B--------------------------------------------------------------------------|
G--------------------------------------------------------------------------|
D---8-8-8-8-8-8-8-8--7-7-7-7-7-7-7-7--3-3-3-3-3-3-3-3--5-5-5-5-5-5-5-5-----|
A---8-8-8-8-8-8-8-8--7-7-7-7-7-7-7-7--3-3-3-3-3-3-3-3--5-5-5-5-5-5-5-5-----|
E---8-8-8-8-8-8-8-8--7-7-7-7-7-7-7-7--3-3-3-3-3-3-3-3--5-5-5-5-5-5-5-5-----|

E-----------------------------------------------------------------------------|
B-----------------------------------------------------------------------------|
G-----------------------------------------------------------------------------|
D--8-8-8-8-8-8-8-8--7-7-7-7-7-7-7-7--3-3-3-3-3-3-3-3--10-10-10-10-10-10-10-10-|
A--8-8-8-8-8-8-8-8--7-7-7-7-7-7-7-7--3-3-3-3-3-3-3-3--10-10-10-10-10-10-10-10-|
E--8-8-8-8-8-8-8-8--7-7-7-7-7-7-7-7--3-3-3-3-3-3-3-3--10-10-10-10-10-10-10-10-|

"""Post-Chorus"""    1:25      -->Entspricht dem Intro!

() () ()   REPEAT:      VERSE II       PRE-CHORUS      CHORUS      () () ()

"""Guitar-Solo"""    2:21
Guitar 1  (Riff)
E--------------------------------------------------------------|
B--------------------------------------------------------------|
G--------------------------------------------------------------|
D---12~\---0~----3~----10-10-10--12~\---0~----3~----10~--------|
A---12~\---0~----3~----10-10-10--12~\---0~----3~----10~--------|
E---12~\---0~----3~----10-10-10--12~\---0~----3~----10~--------|


Guitar 2  (Solo)
E---------------------------/13^--12^----------------------------|
B-------10~----------10~----------------13~--13b15^^^^^^^^^------|
G---12~-----10~--------------------------------------------------|
D---------------10~----------------------------------------------|
A----------------------------------------------------------------|
E----------------------------------------------------------------|

E-------------------------------/13--12---------------------------------|
B-----------------------13~-------------13--15---10--13---8--6----------|
G-------10~-----12~-----------------------------------------------------|
D---10~-----10~-----10~-------------------------------------------------|
A-----------------------------------------------------------------------|
E-----------------------------------------------------------------------|

E----------------------------------------------------13--12------15--12b13^---|
B---8/10--8--6----8/10--8--6---------------------------------13---------------|
G------------------------------7^^^^^^^\-------9-10---------------------------|
D-------------------------------------------10--------------------------------|
A-----------------------------------------------------------------------------|
E-----------------------------------------------------------------------------|

"""Break"""    3:38
E--------------------------------------------|
B--------------------------------------------|
G--------------------------------------------|
D---(0~)---------8~-----7~-----3~------------|
A---(0~)---------8~-----7~-----3~------------|
E---(0~)---------8~-----7~-----3~------------|

() () ()  REPEAT:    PRE-CHORUS     CHORUS (x2)    INTRO AS OUTRO    () () ()


und das wars auch schon...    Ich hoffe es hat geholfen ;D

Bitte rated, hinterlasst nen Kommentar und schreibt mir gerne Verbesserungen!


Cheers...
            
Submit corrections

comments powered by Disqus
↑ Back to top | Emil Bulls Tabs for Nothing In This World. Lyrics for acoustic guitar and electric guitar. 1 Tablatures and chords are parodies/interpretations of the original songs. You may use it for private study, scholarship, research or language learning purposes only