>
 >
Man Overboard!

Man Overboard! Guitar Tabs

Emil Bulls - Man Overboard! chords, tabs, tablatures, lyrics

Guitar lessons | Add/correct | Request | Top 50 tabs Artists:  A B C D E F G H I J K L M N O P Q R S T U V W X Y Z 0-9

Man Overboard! Guitar Tabs – Emil Bulls

CD, Sheet music, Poster

Do you like Man Overboard!? Share with your friends now
Tabs

REAL FANS SUPPORT BANDS BY PURCHASING THEIR CDS!!!


Tuning: Drop C


. = Palm-Muted
~ = hold note
^ = vibrate
p = pull off
h = hammer on
/ = slide up
\ = slide down


"""Intro"""
Guitar 1
E---------------------------------------------------------|
B---------------------------------------------------------|
G---------------------------------------------------------|
D---0~---0~---0~---0~-----0~---0~---0~---0~---------------|
A---0~---0~---0~---0~-----0~---0~---0~---0~---------------|
E---0~---0~---0~---0~-----0~---0~---0~---0~---------------|

E-------------------------------------------------------|
B-------------------------------------------------------|
G-------------------------------------------------------|
D-----6~---6~---6~-----------------------0~-------------|
A-----6~---6~---6~----4-4-4-4-4-4-4-4----0~-------------|
E-----6~---6~---6~----4-4-4-4-4-4-4-4----0~-------------|
                      . . . . . . . .

E----------------------------------------------------|
B----------------------------------------------------|
G----------------------------------------------------|
D----6-6-6--4-4-4---2h3-2----------------------------|
A----6-6-6--4-4-4---2h3-2----------------------------|
E----6-6-6--4-4-4---2h3-2----------------------------|


Guitar 2
E----------------------------------------------------------------------|
B----10~--10~--10~--10-10-10----13~--13~--13~--13-13-13----------------|
G----9~---9~---9~---9--9--9-----12~--12~--12~--12-12-12----------------|
D----7~---7~---7~---7--7--7-----10~--10~--10~--10-10-10----------------|
A----------------------------------------------------------------------|
E----------------------------------------------------------------------|

E---------------------------------------------------------------------------|
B---9~--9~--9~--------------------------8--8--8---8--8--8-------------------|
G---8~--8~--8~--------------------------7--7--7---7--7--7---9b10r9---7~-----|
D---6~--6~--6~--------------------0~----5--5--5---4--4--4---x--------x~-----|
A----------------4-4-4-4-4-4-4-4--0~------------------------7b8-r7---5~-----|
E----------------4-4-4-4-4-4-4-4--0~--------------------------------(0~)----|
                 . . . . . . . .


Guitar 3    ab 0:14
E--------------------------------------------------------------------|
B---10-------10---------8-------8---------9-------9-------8b9r8------|
G------7---7----7---7-----5---5---5---5-----7---7---7----------------|
D--------7--------7---------5-------5---------6----------------------|
A--------------------------------------------------------------------|
E--------------------------------------------------------------------|


Alle Gitarren enden das Intro mit Folgendem:  0:29
E--------------------|
B--------------------|
G--------------------|  und halten den Ton bis 0:40
D----0~--------------|
A----0~--------------|
E----0~--------------|


"""Verse"""  0:40
E------------------------------------------------------------------------|
B------------------------------------------------------------------------|
G------------------------------------------------------------------------|
D------------------------------------------------------------------------|
A---00000000-00000000--33333333-55555555--88888888-88888888--------------|
E---00000000-00000000--33333333-55555555--88888888-88888888--------------|
    ........ ........  ........ ........  ........ ........

E------------------------------------------|
B------------------------------------------|
G------------------------------------------|
D------------------------------------------|
A---1010101010101010-5555-7777-------------|
E---1010101010101010-5555-7777-------------|
    . . . . . . . .  .... ....

"""Chorus"""   1:09
Guitar 1
E-------------------------------------------------------|
B-------------------------------------------------------|
G-------------------------------------------------------|
D----8-8-8-8--10-10-10-10--0-0-0-0--0-0-0-0-------------|
A----8-8-8-8--10-10-10-10--0-0-0-0--0-0-0-0-------------|
E----8-8-8-8--10-10-10-10--0-0-0-0--0-0-0-0-------------|

E-------------------------------------------------|
B-------------------------------------------------|
G-------------------------------------------------|
D-----8-8-8-8--7-7-7-7--0-0-0-0--0-0-0-0----------|
A-----8-8-8-8--7-7-7-7--0-0-0-0--0-0-0-0----------|
E-----8-8-8-8--7-7-7-7--0-0-0-0--0-0-0-0----------|


Guitar 2  Sowas in der Art:
E----------------------------------------------------------|
B----11~--11~----13~--13~----15~--15~--15~--15~------------|
G----10~--10~----12~--12~----14~--14~--14~--14~------------|
D----8~---8~-----10~--10~----12~--12~--12~--12~------------|
A----------------------------------------------------------|
E----------------------------------------------------------|

E----------------------------------------------------------|
B----11~--11~---11~--11~----15~--15~--15~--15~-------------|
G----10~--10~---9~---9~-----14~--14~--14~--14~-------------|
D----8~---8~----7~---7~-----12~--12~--12~--12~-------------|
A----------------------------------------------------------|
E----------------------------------------------------------|

"""Post-Chorus"""   1:23
E--------------------------------------|
B--------------------------------------|
G----10~---9~--------------------------|
D----8~----7~--------------------------|
A----8~----7~--------------------------|
E----8~----7~--------------------------|

             ()()() REPEAT VERSE AND CHORUS  ()()()

"""Chorus Part Two"""   2:08   Nach dem normalen Chorus
E---------------------------------------------------------------------------|
B---------------------------------------------------------------------------|
G---------------------------------------------------------------------------|
D----8-------10-------0-------3------------8-------10-------0-------12------|
A----8-x8----10-x8----0-x8----3-x8---------8-x8----10-x8----0-x8----12-x8---|
E----8-------10-------0-------3------------8-------10-------0-------12------|


G--------------------------------|uitar 2 Daur-Spiel-Variante-Kein-Plan-Was-Das-Soll
E-----10----10----10----10-------|
B--------10----10----10----10----|
G--------------------------------|  Das kommt im Chorus oft vor
D--------------------------------|
A--------------------------------|
E--------------------------------|

"""Bridge"""   2:23
Guitar 1
E----------------------------------------------------------------------------|
B----------------------------------------------------------------------------|
G----------------------------------------------------------------------------|
D----------------------------------------------------------------------------|
A--55555555-55555555--77777777-77777777--00000000-00000000-00000000-00000000-|
E--55555555-55555555--77777777-77777777--00000000-00000000-00000000-00000000-|
   ........ ........  ........ ........  ........ ........ ........ ........

E----------------------------------------------------------------------------|
B----------------------------------------------------------------------------|
G----------------------------------------------------------------------------|
D----------------------------------------------------------------------------|
A--88888888-88888888--77777777-77777777--00000000-00000000-00000000-00000000-|
E--88888888-88888888--77777777-77777777--00000000-00000000-00000000-00000000-|
   ........ ........  ........ ........  ........ ........ ........ ........

E--------------------------------------------------------------------------------------|
B--------t=ten=zehn=10-----------------------------------------------------------------|
G--------------------------------------------------------------------------------------|
D--------------------------------------------------------------------------------------|
A--55555555-55555555--77777777-77777777--33333333-33333333--tttttttt-tttttttt----------|
E--55555555-55555555--77777777-77777777--33333333-33333333--tttttttt-tttttttt----------|
   ........ ........  ........ ........  ........ ........  ........ ........

E----------------------------------------------------------------------------|
B----------------------------------------------------------------------------|
G----------------------------------------------------------------------------|
D----------------------------------------------------------------------------|
A--55555555-55555555--77777777-77777777--00000000-00000000-00000000-00000000-|
E--55555555-55555555--77777777-77777777--00000000-00000000-00000000-00000000-|
   ........ ........  ........ ........  ........ ........ ........ ........


Guitar 2     Spielt etwas Hohes. Mir ist nich genau klar, was eigentlich...
E----------------------------------------------------------|
B----8~---8~-----10~---10~---------------13~---13~---------|
G----7~---7~-----9~----9~-----7~---7~----12~---12~---------|
D----5~---5~-----7~----7~-----0~---0~----10~---10~---------|
A----------------------------------------------------------|
E----------------------------------------------------------|

()()()  REPEAT  CHORUS   CHORUS PART TWO   CHORUS AGAIN   AND   INTRO ()()()
                                                                -->As Outro


und das wars...
Ich hoffe es hat gefallen, bitte rated und hinterlasst n kommentar ;D

Cheers...





Comments


Popular Emil Bulls tabs & chords
The Architects Of My Apocalypse 1 Bass Tabs
Friday Night Chords
Not Tonight Josephine Chords
Worlds Apart Chords
Between The Devil And The Deep Blue Sea Tabs
Friday Night 1 Tabs
Style School 2 Tabs
Take On Me Tabs
When God Was Sleeping Tabs
Friday Night Ukulele


Song lyrics



↑ Back to top | Tablatures and chords are parodies/interpretations of the original songs. You may use it for private study, scholarship, research or language learning purposes only
© 2014 AZChords.com Contact us | Privacy policy | DMCA | Add/correct tabs | Request tabs | Top 50 tabs