» » »

Jaws Of Oblivion Tabs (ver.1)

Artists:  A B C D E F G H I J K L M N O P Q R S T U V W X Y Z # 

Jaws Of Oblivion Tabs (ver.1)

Emil Bulls
Rating:
0/5 (0 votes)

Hard to play? Try these video lessons and learn fast.
                Emil Bulls - Jaws of Oblivion (TABS):
[I figured out the tabs by ear, so they midht have some failures!]

Tuning: Dropped C (two halfsteps down, then dropped D)

Intro:

|-----------------------------------------------------------------------|
|-----------------------------------------------------------------------|
|--17171717171717171717171717171717-14/17171717171717-1414141414141414--|
|---XXXXXXXXXXXXXXXXXXXXXXXXXXXXXXX-X  XXXXXXXXXXXXXX-XXXXXXXXXXXXXXXX--|
|--15151515151515151515151515151515-12/15151515151515-1212121212121212--|
|-----------------------------------------------------------------------|

|-----------------------------------------------------------------------|
|-----------------------------------------------------------------------|
|--17171717171717171717171717171717-------------------------------------|
|--XXXXXXXXXXXXXXXXXXXXXXXXXXXXXXXX-8-1010-8-1010-8-1010-8-1010-8-1010--|
|--15151515151515151515151515151515-8-1010-8-1010-8-1010-8-1010-8-1010--|
|-----------------------------------8-1010-8-1010-8-1010-8-1010-8-1010--|

Verse1:

|--6-65-56-65-57-75-57-75--|
|--------------------------|
|--------------------------|
|--------------------------| I just write the riff!
|--------------------------| You have to figure out yourself, how long you play it!
|--------------------------|
 
Verse2:

|---------------------------------------------------------------------|
|---------------------------------------------------------------------|
|--33-333-333-333-3-55-555-555-555-5-33-333-333-333-3-55-555-555-555--|
|--33-333-333-333-3-55-555-555-555-5-33-333-333-333-3-55-555-555-555--|
|--11-111-111-111-1-33-333-333-333-3-11-111-111-111-1-33-333-333-333--|
|---------------------------------------------------------------------|

Chorus:

|---------------------------------------------------|
|---------------------------------------------------|
|---------------------------------------------------|
|--0-0000000-10-10101010101010-8-8888888-5-5555555--|   3X
|--0-0000000-10-10101010101010-8-8888888-5-5555555--|
|--0-0000000-10-10101010101010-8-8888888-5-5555555--|

|-------------------------------------------------------|
|-------------------------------------------------------|
|-------------------------------------------------------|
|--8888888888888888-8-1010-8-1010-8-1010-8-1010-8-1010--|
|--8888888888888888-8-1010-8-1010-8-1010-8-1010-8-1010--|
|--8888888888888888-8-1010-8-1010-8-1010-8-1010-8-1010--|

repeat: "verse1" 
repeat: "verse2 "
repeat: "chorus" 

Solo:
|-----------------------------------------------------------------|
|--10---------10--------------10---------1013-101310171817-15b/1--|
|----121012-12--10-101010-7-5---121012-12-------------------------|
|-----------------------------------------------------------------|
|-----------------------------------------------------------------|
|-----------------------------------------------------------------|

|---------------------------------------|
|---------------------------181715--17--|
|---------------------------------------|
|---------------------------------------|
|---------------------------------------|
|--///////pickslide//////---------------|

repeat "chorus" two times
repeat "verse1"  and end on C :
|-----|
|-----|
|-----|
|--0--|
|--0--|
|--0--|
That´s it! A really cool song of a fantastic Band and easy to play! :)
            
Hard to play? Try these video lessons and learn fast. | Correct




comments powered by Disqus
↑ Back to top | Tablatures and chords are parodies/interpretations of the original songs. You may use it for private study, scholarship, research or language learning purposes only