» » »

Its High Time Tabs (ver.1)

Artists:  A B C D E F G H I J K L M N O P Q R S T U V W X Y Z # 

Its High Time Tabs (ver.1)

Emil Bulls
Rating:
5/5 (6 votes)

Hard to play? Try these video lessons and learn fast.
                
REAL FANS SUPPORT BANDS BY PURCHASING THEIR CDS!!!

Tuning: Drop C#

. = Palm-Muted
~ = hold note
^ = vibrate
p = pull off
h = hammer on
/ = slide up
\ = slide down

"""Verse"""   Clean
E-----------------------------------------------|
B-----------------------------------------------|
G-----------------------------------------------|
D--------7~-----------7~-----------2~-----------|
A-----4~-----------5~-----------0~--------------|
E---4~-----------5~-----------0~----------------|

"""Pre-Chorus"""  0:25   Distortion
E---------------------------------------------------------------------------|
B---------------------------------------------------------------------------|
G---------------------------------------------------------------------------|
D---------------------------------------------------------------------------|
A---4--44-44---0~----00-0(0)---00-00------5--55-55---4~----44-4(4)---44-44--|
E---4--44-44---0~----00-0(0)---00-00------5--55-55---4~----44-4(4)---44-44--|
    .  .. ..   .     .. . .    .. ..      .  .. ..   .     .. . .    .. ..

"""Chorus""" 0:37
E----------------------------------------------------------------------|
B----------------------------------------------------------------------|
G---(6)(6)(6)(6)--(7)(7)(7)(7)--(2)(2)(2)(2)--(11)(11)(11)(11)---------|
D----4--4--4--4----5--5--5--5----0--0--0--0----9---9---9---9-----------| x2
A----4--4--4--4----5--5--5--5----0--0--0--0----9---9---9---9-----------|
E----4--4--4--4----5--5--5--5----0--0--0--0----9---9---9---9-----------|

E-------------------------------------------------------------|
B-------------------------------------------------------------|
G---(6)(6)(6)(6)--(7)(7)(7)(7)--(2)(2)(2)(2)(2)(2)(2)(2)------|
D----4--4--4--4----5--5--5--5----0--0--0--0--0--0--0--0-------|
A----4--4--4--4----5--5--5--5----0--0--0--0--0--0--0--0-------|
E----4--4--4--4----5--5--5--5----0--0--0--0--0--0--0--0-------|

E-------------------------------------------------------------------------|
B-------------------------------------------------------------------------|
G----(11)(11)(11)(11)--(9)(9)(9)(9)-----7--7--7~-----7--7---7-7~----------|
D-----9---9---9---9-----7--7--7--7------7--7--7~-----7--7---7-7~----------|
A-----9---9---9---9-----7--7--7--7------5--5--5~-----5--5---5-5~----------|
E-----9---9---9---9-----7--7--7--7------5--5--5~-----5--5---5-5~----------|

!!!!! REPEAT VERSE     PRE-CHORUS      CHORUS !!!!!

"""Break: Part One"""  2:02
Keine Gitarre, außer ein paar tönen zwischendruch
E--------------------------------|
B--------------------------------|
G----------6-6---6-6~------------|
D----7~----7-7---7-7~------------|
A----4~----4-4---4-4~------------|
E--------------------------------|

"""Break: Part Two"""  2:14
Guitar 1
E--------------------------------------------------|
B--------------------------------------------------|
G--------------------------------------------------|
D--------------------------------------------------|
A---4---44-44---0~-----5---55-55---4~--------------|
E---4---44-44---0~-----5---55-55---4~--------------|
    .   .. ..   .      .   .. ..   .


Guitar 2   (Impro-Solo)  ->Ich hab nich alles raus, aber das kommt iwann noch
Der Anfang mit dem Effekt fehlt...

2:22
E---14-------14-------14----14----14----14----14----14----------------------|
B---17b19~---17b19~---17b19-17b19-17b19-17b19-17b19-17b19---19b21~--(21)r19-|
G---------------------------------------------------------------------------|
D---------------------------------------------------------------------------|
A---------------------------------------------------------------------------|
E---------------------------------------------------------------------------|

2:28
Ich hab die Tonleitern nich im Kopf... die sollte es eig nur von unten noch oben sein 
C#)
E------------------------------------------------------|
B------------------------------------------------------|
G------------------------------------------------------|
D-----Sweap Picking + Tonleiter + Palm mute = FTW------|
A------------------------------------------------------|
E------------------------------------------------------|

2:31   Picking
E----19p15p12---17p15p12---20b21~----------------------|
B------------------------------------------------------|
G------------------------------------------------------|
D------------------------------------------------------|
A------------------------------------------------------|
E------------------------------------------------------|

2:32     (* = ein wenig pinch)
E--------------------------------------------------|
B--------------------------------------------------|
G--------------------------------------------------|
D--------------------------------------------------|
A----11-0--9-0--11-0---14*(0)--11-0--9-0-----------|
E--------------------------------------------------|
     .  .  . .  .  .       .   .  .  . .

E------------------------------------------------------|
B------------------------------------------------------|
G------------------------------------------------------|
D------------------------------------------------------|
A----11-0--9-0--11-0---14*(0)--11-0--9*\---------------|
E------------------------------------------------------|
     .  .  . .  .  .       .   .  .

2:37
E-------13-------14-13---------------------------------|
B---16------14----------14^\---------------------------|
G------------------------------------------------------|
D------------------------------------------------------|
A------------------------------------------------------|
E------------------------------------------------------|

"""Break: Part Three"""  2:38
Guitar 1
E------------------------------------------------------|
B------------------------------------------------------|
G------------------------------------------------------|
D----4-4-4-4-4-4-5-5---0-0-0-0-0-0-0-0-----------------|
A----4-4-4-4-4-4-5-5---0-0-0-0-0-0-0-0-----------------|
E----4-4-4-4-4-4-5-5---0-0-0-0-0-0-0-0-----------------|


Guitar 2
2:38
E------------------------------------------------------------------|
B--------------14-12-----------------------------------------------|
G--------/13~---------14-13^--13h14--11^-----6/18~--18^--18^-------|
D---5h7------------------------------------------------------------|
A------------------------------------------------------------------|
E------------------------------------------------------------------|

E------------------------------------------------------|
B------------------------------------------------------|
G---18^--18h19-18---14-14^~---13~--14~-----------------|
D------------------------------------------------------|
A------------------------------------------------------|
E------------------------------------------------------|

!!!!! REPEAT CHORUS !!!!!

"""Outro"""   Clean  3:15
E-----------------------------------------------|
B-----------------------------------------------|
G-----------------------------------------------|
D--------7~-----------7~-----------2~-----------| x2
A-----4~-----------5~-----------0~--------------|
E---4~-----------5~-----------0~----------------|


Und das wars... Ich hoffe, es hat gefallen, bitte rated und hinterlasst nen kommentar.

Und guckt ma bei meinem profil rein, hab noch mehr tabs, auch andere Emil Bulls tabs ;D

Cheers...
            
Hard to play? Try these video lessons and learn fast. | Correct




comments powered by Disqus
↑ Back to top | Tablatures and chords are parodies/interpretations of the original songs. You may use it for private study, scholarship, research or language learning purposes only