» » »

Here Comes The Fire Bass tabs (ver.1)

Artists:  A B C D E F G H I J K L M N O P Q R S T U V W X Y Z # 

Here Comes The Fire Bass tabs (ver.1)

Emil Bulls
Rating:
5/5 (1 vote)

Hard to play? Try these video lessons and learn fast.
                Hier ist der bass tab zum tab von necriononguitar.
Viel Spaß ;D

Das hier is mein erster tab, also seid nich so hart ;D
Ich werd noch viel mehr EMil BUlls tabs machen, wenn ich die zeit hab ;D

Tuning ist Drop B


Intro:
G------------------------------------------------|
D------------------------------------------------|
A------------------------------------------------|
E---0-3-5--0-6-5--0-7-8--0-0-0--0-3--0-3-5-------|

Vers:
G------------------------------------------------|
D------------------------------------------------|
A------------------------------------------------|
E---0-0-0-0--3--0-0--6--0-0--3-0-3-0--3/5--------|

G------------------------------------------------|
D------------------------------------------------|
A------------------------------------------------|
E---666--6-6-6-6-6-6---333--3-3-3-3-3/5----------|

G------------------------------------------------|
D------------------------------------------------|
A------------------------------------------------|
E---0-3--0--6---6-5---0-3-0-6--6-----------------|

Chorus:
G------------------------------------------------------------------------|
D------------------------------------------------------------------------|
A------------------------------------------------------------------------|
E---0-0-0-0-0-0-0-0--8-8-8-8-8-8-8-8--3-3-3-3-3-3-3--5-5-5-5-5-5-5-------|

G------------------------------------------------------------------------|
D------------------------------------------------------------------------|
A------------------------------------------------------------------------|
E---0-0-0-0-0-0-0-0--8-8-8-8-8-8-8--3-3-3-3-3-3-3-3--3-3-3-3-3-3-3-3-----|

Post Chorus:   Bein 2:00 ungefähr
G----------------------------------------------------------------------------|
D----------------------------------------------------------------------------|
A----------------------------------------------------------------------------|
E----8-8-8-8-8-8-8-8--8-8-8-8-8-8-8-8----0-3-5--0-6-5--0-7-8--0-0-0--6-5-3-5-|


ok jetzt spielt der bass erstmal nichts mehr neues... das wars.
            
Hard to play? Try these video lessons and learn fast. | Correct




comments powered by Disqus
↑ Back to top | Tablatures and chords are parodies/interpretations of the original songs. You may use it for private study, scholarship, research or language learning purposes only