» » »

Close To The Wind Tabs (ver.1)

Artists:  A B C D E F G H I J K L M N O P Q R S T U V W X Y Z # 

Close To The Wind Tabs (ver.1)

Emil Bulls
Rating:
5/5 (1 vote)

Tabs too difficult? Try these video lessons and learn fast.
                This is the Solo from the Song “Close to the Wind”, from the german Band ‚Emil Bulls’.

/ = slide up
\ = slide down


e------------------------------------------------------------------------------------|
b------------------------------------------------------------------------------------|
g--------------------------------11---11-12-11-9-------------------------------------|
d---/9---/12-----------/9---/12----------------------/9---/12--11-------------9-9----|
a--------------/9-------------------------------------------------9--9----9-12----12-|
e--------------------------------------------------------------------- 12------------|


e--------------------------------------14\-------------------------------------------|
b---------78787878-/12--12--12-15-14-12----------------------------------------------|
g-79797979---------------------------------------------------------------------------|
d------------------------------------------------------------------------------------|
a------------------------------------------------------------------------------------|
e------------------------------------------------------------------------------------|
            
Tabs too difficult? Try these video lessons and learn fast.




comments powered by Disqus
↑ Back to top | Tablatures and chords are parodies/interpretations of the original songs. You may use it for private study, scholarship, research or language learning purposes only