>
 >
Between The Devil And The Deep Blue Sea

Between The Devil And The Deep Blue Sea Guitar Tabs

Emil Bulls - Between The Devil And The Deep Blue Sea chords, tabs, tablatures, lyrics

Guitar lessons | Add/correct | Request | Top 50 tabs Artists:  A B C D E F G H I J K L M N O P Q R S T U V W X Y Z 0-9

Between The Devil And The Deep Blue Sea Guitar Tabs – Emil Bulls

CD, Sheet music, Poster

Do you like Between The Devil And The Deep Blue Sea? Share with your friends now
Tabs
Between the Devil and the Deep Blue Sea

Album : Oceanic

Tuning : Drop C ( C G C F A D )

^  :  vibrato
h  :  Hammer on
/  :  Slide up
\  :  Slide down
p  :  pull off
.  :  palm mute
~  :  hold note
*  :  deathnote

Intro

D--------------------------------------------------|
A--------------------------------------------------|
F--------------------------------------------------|     (4X)
C--------------------------------------------------|
G--------------------------------------------------|
C-000000-1-000000-1-000-1-000000-1-000000-1-000-1--|
  ......   ......   ...   ......   ......   ...
Verse

(Destiny....)
D---------------------------------------------------|
A---------------------------------------------------|
F---------------------------------------------------|
C---------------------------------------------------|
G---------------------------------------------------|
C-000000-1----0001--000000001--0000001--0001--------|
  ......      ...   ........   ......   ...
D---------------------------------------------------|
A---------------------------------------------------|
F---------------------------------------------------|
C---------------------------------------------------|
G---------------------------------------------------|
C-000000-1----0001--000000001--0000001--0001--------|
  ......      ...   ........   ......   ...
D---------------------------------------------------|
A---------------------------------------------------|
F---------------------------------------------------|
C--------6/-----------------------------------------|
G--------6/--------------------------3*-------------|
C-000000------0001--000000001--000000---000-5*------|
  ......      ...   ........   ......   ...
D---------------------------------------------------|
A---------------------------------------------------|
F---------------------------------------------------|
C---------------------------------------------------|
G------------------------------------3*-------------|
C-000000-1----0001--000000001--000000---0005*-------|
  ......      ...   ........   ......   ...
Bridge

(I will fight again...)
D--------------------------------------------------------------------|
A--------------------------------------------------------------------|
F--------------------------------------------------------------------|
C-9-9-9-9-9-9-9-9--5-5-5-5-5-5-5-5--2-2-2-2-2-2-2-2--7-7-7-7-8-8-8-8-|
G-7-7-7-7-7-7-7-7--3-3-3-3-3-3-3-3--0-0-0-0-0-0-0-0--5-5-5-5-6-6-6-6-|
C--------------------------------------------------------------------|

Verse

(Determination...)
D---------------------------------------------------|
A---------------------------------------------------|
F---------------------------------------------------|
C---------------------------------------------------|
G---------------------------------------------------|
C-000000-1----0001--000000001--0000001--0001--------|
  ......      ...   ........   ......   ...
D---------------------------------------------------|
A---------------------------------------------------|
F---------------------------------------------------|
C---------------------------------------------------|
G---------------------------------------------------|
C-000000-1----0001--000000001--0000001--0001--------|
  ......      ...   ........   ......   ...
D---------------------------------------------------|
A---------------------------------------------------|
F---------------------------------------------------|
C--------6/-----------------------------------------|
G--------6/--------------------------3*-------------|
C-000000------0001--000000001--000000---000-5*------|
  ......      ...   ........   ......   ...
D---------------------------------------------------|
A---------------------------------------------------|
F---------------------------------------------------|
C---------------------------------------------------|
G------------------------------------3*-------------|
C-000000-1----0001--000000001--000000---0005*-------|
  ......      ...   ........   ......   ...
Bridge

D--------------------------------------------------------------------|
A--------------------------------------------------------------------|
F--------------------------------------------------------------------|
C-9-9-9-9-9-9-9-9--5-5-5-5-5-5-5-5--2-2-2-2-2-2-2-2--7-7-7-7-8-8-8-8-|
G-7-7-7-7-7-7-7-7--3-3-3-3-3-3-3-3--0-0-0-0-0-0-0-0--5-5-5-5-6-6-6-6-|
C--------------------------------------------------------------------|

PreChorus

(This is a war...)
D-------------------|
A-------------------|
F-------------------|
C-9~--5~--2~--7~-8~-|
G-7~--3~--0~--5~-6~-|
C-------------------|

Chorus

D-------------------|
A-------------------|
F-------------------|
C-2~-2-0~-0-4~-2-5~-|     (4X)
G-2~-2-0~-0-2~-2-3~-|
C-2~-2-0~-0---------|

PostChorus

(You´re cold as stone...)
D--------------------------------------------------|
A--------------------------------------------------|
F--------------------------------------------------|     (2X)
C--------------------------------------------------|
G--------------------------------------------------|
C-000000-1-000000-1-000-1-000000-1-000000-1-000-1--|
  ......   ......   ...   ......   ......   ...

Verse

(Agony...)
D---------------------------------------------------|
A---------------------------------------------------|
F---------------------------------------------------|
C---------------------------------------------------|
G---------------------------------------------------|
C-000000-1----0001--000000001--0000001--0001--------|
  ......      ...   ........   ......   ...
D---------------------------------------------------|
A---------------------------------------------------|
F---------------------------------------------------|
C---------------------------------------------------|
G---------------------------------------------------|
C-000000-1----0001--000000001--0000001--0001--------|
  ......      ...   ........   ......   ...
D---------------------------------------------------|
A---------------------------------------------------|
F---------------------------------------------------|
C--------6/-----------------------------------------|
G--------6/--------------------------3*-------------|
C-000000------0001--000000001--000000---000-5*------|
  ......      ...   ........   ......   ...
D---------------------------------------------------|
A---------------------------------------------------|
F---------------------------------------------------|
C---------------------------------------------------|
G------------------------------------3*-------------|
C-000000-1----0001--000000001--000000---0005*-------|
  ......      ...   ........   ......   ...
Bridge

D--------------------------------------------------------------------|
A--------------------------------------------------------------------|
F--------------------------------------------------------------------|
C-9-9-9-9-9-9-9-9--5-5-5-5-5-5-5-5--2-2-2-2-2-2-2-2--7-7-7-7-8-8-8-8-|
G-7-7-7-7-7-7-7-7--3-3-3-3-3-3-3-3--0-0-0-0-0-0-0-0--5-5-5-5-6-6-6-6-|
C--------------------------------------------------------------------|

PreChorus

D-------------------|
A-------------------|
F-------------------|
C-9~--5~--2~--7~-8~-|
G-7~--3~--0~--5~-6~-|
C-------------------|

Chorus

D-------------------|
A-------------------|
F-------------------|
C-2~-2-0~-0-4~-2-5~-|     (4X)
G-2~-2-0~-0-2~-2-3~-|
C-2~-2-0~-0---------|

BreakDown

(Now welcome the Battle..)
D-------------------------------------------------|
A-------------------------------------------------|
F-------------------------------------------------|
C-xxxxx-xxxxx-xxxxx-xxxxx-xxxxx-xxxxx-xxxxx-xxxxx-|
G-xxxxx-xxxxx-xxxxx-xxxxx-xxxxx-xxxxx-xxxxx-xxxxx-|
C-xxxxx-xxxxx-xxxxx-xxxxx-xxxxx-xxxxx-xxxxx-xxxxx-|

(DIIIIIIIIIIIIIEEEEEEEEEEEEEE!!!!!!!!!!!!)
D---------------------------------------------------|
A---------------------------------------------------|
F---------------------------------------------------| (3X)
C---------------------------------------------------|
G------------------------------------4-----2-----1~-|
C-11111-11111-11111-1~-1-11111-11111---0-2---0-1----|
  ..... ..... .....    . ..... .....   . .   . .
D-------------------------------------------------------------------------|
A-------------------------------------------------------------------------|
F-------------------------------------------------------------------------|
C-------------------------------------------------------------------------|
G-4-----2-----1~---4-----2-----1~---4-----2-----1~------------------------|
C---0-2---0-1----0---0-2---0-1----0---0-2---0-1----1111111111110000000000-|
    . .   . .    .   . .   . .    .   . .   . .
D----------------------------------------------------|
A----------------------------------------------------|
F----------------------------------------------------|
C----------------------------------------------------|
G-------------------------------------4-----2-----1~-|
C-00000-00000-00000-00000-00000-00000---0-2---0-1----|
  ..... ..... ..... ..... ..... .....   . .   . .
D----------------------------------------------------|
A----------------------------------------------------|
F----------------------------------------------------|
C----------------------------------------------------|
G----------------------------------------------------|
C-00000-00000-00000-00000-00000-00000--0-1-----------|
  ..... ..... ..... ..... ..... .....
D----------------------------------------------|
A----------------------------------------------|
F----------------------------------------------|
C-9~--5~--2~--7~-8~-12-12-12-12-12-12-12-12----|
G-7~--3~--0~--5~-6~-10-10-10-10-10-10-10-10----|
C---------------------------------------------2|

Chorus

D-------------------|
A-------------------|
F-------------------|
C-2~-2-0~-0-4~-2-5~-|     (8X)
G-2~-2-0~-0-2~-2-3~-|
C-2~-2-0~-0---------|

Outro

D--------------------------------------------------|
A--------------------------------------------------|
F--------------------------------------------------|     (3X)
C--------------------------------------------------|
G--------------------------------------------------|
C-000000-1-000000-1-000-1-000000-1-000000-1-000-1--|
  ......   ......   ...   ......   ......   ...
D------------------------|
A------------------------|
F------------------------|
C------------------------|
G---------------------0--|
C-0000000000000000000-0--|
  ................... .

Viel Spaß damit!





Comments


Popular Emil Bulls tabs & chords
Here Comes The Fire Bass Tabs
Leaving You With This Bass Tabs
Dancing On The Moon Chords
Friday Night Chords
Newborn Chords
Leaving You With This Tabs
Style School 2 Tabs
When God Was Sleeping Tabs
The Knight In Shining Armour Ukulele
These Are The Days Ukulele


Song lyrics



↑ Back to top | Tablatures and chords are parodies/interpretations of the original songs. You may use it for private study, scholarship, research or language learning purposes only
© 2014 AZChords.com Contact us | Privacy policy | DMCA | Add/correct tabs | Request tabs | Top 50 tabs