» » »

Emil Bulls, Angel Delivery Tabs (ver.1)

Artists:  A B C D E F G H I J K L M N O P Q R S T U V W X Y Z # 

Angel Delivery Tabs (ver.1)

Emil Bulls Tabs
 Rating:
4/5 (4 votes)
Angel Delivery lessons Tabs too difficult? Try these video lessons and learn fast
                Emil Bulls – Angel Delivery
Angel Delivery Service

B, E, A, D, G, b, e - Standard 7 Sting tuning 

Intro:
e|------------------|
b|------------------|
G|------------------|   x 4 (Distortion Palm Muted)
D|------------------|
A|------------------|
E|------------------|
B|-0-2-0-2-0-2-0-3--|

Intro 2:
e|------------------------|
b|------------------------|
G|------------------------|  x 4 (full distortion)
D|------------------------|
A|-3/4--3/4--3/4--3/4--5--|
E|-3/4--3/4--3/4—-3/4--5--|
B|-1/2--1/2--1/2—-1/2--3--|

Verse:
e|------------------|
b|------------------|
G|--6---7---11---6--|   Repeated with Wah/distortion, 
D|------------------|     possibly tremolo picking
A|------------------|
E|------------------|
B|------------------|

Chorus:
e|--------------------------------|
b|--------------------------------|
G|--------------------------------| x 4 Full Distortion
D|--------------------------------|
A|-xx9-9--xx5-5--xx7-7--0-2--0-2--|
E|-xx9-9--xx5-5--xx7-7--0-2--0-2--|
B|-xx7-7--xx3-3--xx5-5--0-0--0-0--|

Bridge:
e|---------------------------------|
b|---------------------------------|
G|--6brb----7brb----11brb----7brb--| x 2 Give these notes a really good 
D|---------------------------------|       bend, release and bend again
A|---------------------------------|
E|---------------------------------|
B|---------------------------------|

Bridge 2:
e|-----------------------------------------------------|
b|-----------------------------------------------------|
G|-----------------------------------------------------| x 2 
D|-----------------------------------------------------| Full
A|-4-4-4-4-4-4--5-5-5-5-5-5--9-9-9-9-9-9--5-5-5-5-5-5--| Distortion
E|-4-4-4-4-4-4--5-5-5-5-5-5--9-9-9-9-9-9--5-5-5-5-5-5--|
B|-2-2-2-2-2-2--3-3-3-3-3-3--7-7-7-7-7-7--3-3-3-3-3-3--|

And End on:

e|----|
b|----|
G|----|
D|----|
A|-4~-|
E|-4~-|
B|-2~-|

Intro       x 4
Intro 2     x 4
Verse       x 2
Chorus      x 4
Intro 2     x 4
Verse       x 2
Chorus      x 4
Bridge      x 2
Bridge 2    x 2
Chorus      x 8
End         x 1


| /  slide up
| \  slide down
| h  hammer-on
| p  pull-off
| ~  vibrato
| +  harmonic
| x  Mute note

=======================================================================
            
Submit corrections

comments powered by Disqus
↑ Back to top | Emil Bulls Tabs for Angel Delivery. Lyrics for acoustic guitar and electric guitar. Tablatures and chords are parodies/interpretations of the original songs. You may use it for private study, scholarship, research or language learning purposes only