» » »

Emerson Hart, If You're Gonna Leave Tabs (ver.1)

Artists:  A B C D E F G H I J K L M N O P Q R S T U V W X Y Z # 

If You're Gonna Leave Tabs (ver.1)

Emerson Hart Tabs
 Rating:
4/5 (4 votes)
If You're Gonna Leave lessons Tabs too difficult? Try these video lessons and learn fast
                
Tuning: E A D G B E (Standard) - Capo 1



Intro & Verse:

--0-0-0--------0-0---3----|
--1-1-1--------1-1---1----|
--0-0-0--------0-0---0----|
--0^2^3--^2^3--0^2---0----|
--3-3-3--------3-3---x----|
---------------------3----|



Pre-chorus:

--0----0-0-0-|
--1----1-1-1-|
--2----0-0-0-|
--2----0^2^0-|
--0----3-3-3-|
-------------|



Chorus:

--/0--0----3----0----0-0-0-|
--/6--1----1-^0-1----1-1-1-|
--/0--0----0----2----0-0-0-|
--/7--2----0----2----0^2^0-|
--/8--3----x----0----3-3-3-|
--/8--3----3---------------|

--/0--0----3----0----0---3----0-|
--/6--1----1-^0-1----1---1----1-|
--/0--0----0----2----0---0----2-|
--/7--2----0----2----3---0----2-|
--/8--3----x----0----3---x----0-|
--/8--3----3-------------3------|



Second Chorus:

--/0--0----3----0----0-0-0-|
--/6--1----1-^0-1----1-1-1-|
--/0--0----0----2----0-0-0-|
--/7--2----0----2----0^2^0-|
--/8--3----x----0----3-3-3-|
--/8--3----3---------------|

--/0--0----3----0-0---3----|
--/6--1----1-^0-1-1---1----|
--/0--0----0----2-0---0----|
--/7--2----0----2-3---0----|
--/8--3----x----0-3---x----|
--/8--3----3----------3----|



Bridge:

--0-0-0-0---3--0-0-0-0---|
--1-1-1-1---1--1-1-1-1---|
--0-0-0-0---0--0-0-0-0---| x3
--0^2^3-0^2-0--0^2^3-0^2-|
--3-3-3-3---x--3-3-3-3---|
------------3------------|

--0---------3---|
--1---------1---|
--2----^0^2-0---|
--2---------0---|
--0---------x---|
------------3---|

--/0--0----3----0----0-0-0-|
--/6--1----1-^0-1----1-1-1-|
--/0--0----0----2----0-0-0-|  ~ Back To Chorus ~
--/7--2----0----2----0^2^0-|
--/8--3----x----0----3-3-3-|
--/8--3----3---------------|



Outro:

--0-0-0-0---3--0-0-0-0---|
--1-1-1-1---1--1-1-1-1---|
--0-0-0-0---0--0-0-0-0---| x2
--0^2^3-0^2-0--0^2^3-0^2-|
--3-3-3-3---x--3-3-3-3---|
------------3------------|

--0--0-----0-------0--0---0----3------|
--1----1-----1-----1-----------1------|
--2------2-----2---0----0---0--0------|
--2--------------2-3----3---3--0^2----|
--0----------------3-----------x------|
-------------------------------3------|
            
Submit corrections

comments powered by Disqus
↑ Back to top | Emerson Hart Tabs for If You're Gonna Leave. Lyrics for acoustic guitar and electric guitar. Tablatures and chords are parodies/interpretations of the original songs. You may use it for private study, scholarship, research or language learning purposes only