» » »

Emerald Sunday, October Bass tabs (ver.1)

Artists:  A B C D E F G H I J K L M N O P Q R S T U V W X Y Z # 

October Bass tabs (ver.1)

Emerald Sunday Tabs
 Rating:
4/5 (4 votes)
October lessons Tabs too difficult? Try these video lessons and learn fast
1
                -------------------------------------------------------------------------------
-------------------------------------------------------------------------------


Tuning: Standard

13 second piano intro (Bass in with Vocals)

  1 + 2 + 3 + 4 + |1 + 2 + 3 + 4 + |
G|----------------|----------------|
D|0-----0-3---2---|----------------|  x3
A|----------------|3-----3---------|
E|----------------|--------0---3---|

  1 + 2 + 3 + 4 + |1 + 2 + 3 + 4 + |
G|----------------|----------------|
D|0-----0-5-7-5-3-|----------------|  x2
A|----------------|3-----3---------|
E|----------------|--------0---3---|

  1 + 2 + 3 + 4 + |1 + 2 + 3 + 4 + |
G|----------------|----------------|
D|0-----0-3---2---|----------------|  x3
A|----------------|3-----3---------|
E|----------------|--------0---3---|

  1 + 2 + 3 + 4 + |1 + 2 + 3 + 4 + |
G|----------------|----------------|
D|0-----0-5-7-5-3-|----------------|  x2
A|----------------|3-----3---------|
E|----------------|--------0---3---|

  1 + 2 + 3 + 4 + |1 + 2 + 3 + 4 + |
G|----------------|----------------|
D|0-----0-3---2---|----------------|  x4
A|----------------|3-----3---------|
E|----------------|--------0---3---|

Piano Outtro
_______________________________________________________________________________

| /  slide up
| \  slide down
| h  hammer-on
| p  pull-off
| ~  vibrato
| +  harmonic
| x  Mute note
===============================================================================
            
Submit corrections

comments powered by Disqus
↑ Back to top | Emerald Sunday Bass for October. Lyrics for acoustic guitar and electric guitar. 1 Tablatures and chords are parodies/interpretations of the original songs. You may use it for private study, scholarship, research or language learning purposes only