>
 >
Little Sister 1

Little Sister 1 Guitar Tabs

Elvis Presley - Little Sister 1 chords, tabs, tablatures, lyrics

Guitar lessons | Add/correct | Request | Top 50 tabs Artists:  A B C D E F G H I J K L M N O P Q R S T U V W X Y Z 0-9

Little Sister 1 Guitar Tabs – Elvis Presley

CD, Sheet music, Poster

Do you like Little Sister 1? Share with your friends now
Bass TabsChordsTabsTabs v2Ukulele
#------------------------------------------------------------------------------##

                                  DOC POMUS AND
                          As recorded by Elvis Presley

Words and Music by Doc Pomus and Mort Shuman
Arranged by Elvis Presley and Scotty Moore


Gtr I (E A D G B E) - 'Guitar 1'
Gtr II (E A D G B E) - 'effects for Guitar 1'
Gtr III (E A D G B E) - 'Rhythm Guitar '
Gtr IV (E A D G B E) - 'effects for Rhythm Guitar'

 Intro
  Moderate Rock Q=138
  (E)
 4/4
  Gtrs I, II
  Q  E E +S  S S S S S S S   E. S E E +S  S S S E E
|-0--0-0-(0)-0-0-0-0-0-0-0-|-0--0-0-0-(0)-0-0-0-0-0-|
|-0--0-0-(0)-0-0-0-0-0-0-0-|-0--0-0-0-(0)-0-0-0-0-0-|
|-1--1-1-(1)-1-1-1-1-1-1-1-|-1--1-1-1-(1)-1-1-1-1-1-|
|-2--2-2-(2)-2-2-2-2-2-2-2-|-2--2-2-2-(2)-2-2-2-2-2-|
|--------------------------|------------------------|
|--------------------------|------------------------|


  Q.   E E   +E    E   +E
|-----------------------------|
|-----------------------------|
|-----------------------------|
|-----------------------------|
|-----------------------------|
|-0----0-3b4-(3)b4-3b4-(3)b4--|


                                         $
  Q.   E E   +E    E   +E      h    H
|----------------------------|-----------||
|----------------------------|-----------||
|----------------------------|-----------||
|----------------------------|-----------||
|----------------------------|-----------||
|-0----0-3b4-(3)b4-3b4-(3)b4-|-0---------||
|
| Gtrs III, IV
| W                            W
|----------------------------|-----------||
|----------------------------|-----------||
|----------------------------|-----------||
|----------------------------|-----------||
|----------------------------|-----------||
|----------------------------|-----------||


  (E)                             E
                        |-3-|
  E E     +E      E E E S S S E   W
|---3b3.5-(3)b3.5-0-------------|-------------------|
|-------------------3-0---------|-------------------|
|-----------------------2h3p2p0-|-------------------|
|-------------------------------|-2-----------------|
|-------------------------------|-------------------|
|-------------------------------|-------------------|
|
| W                               Q  E E +E  E E E
|-------------------------------|----0-0-(0)-0-0-0--|
|-------------------------------|----0-0-(0)-0-0-0--|
|-------------------------------|----1-1-(1)-1-1-1--|
|-------------------------------|-2--2-2-(2)-2-2-2--|
|-------------------------------|-------------------|
|-------------------------------|-------------------|


                                                       A
                          |-3-|
  E E     +E      E  E  E S S S E   W                  Q  E E  E  E E E
|---3b3.5-(3)b3.5-0---------------|------------------|------------------|
|--------------------3--0---------|------------------|------------------|
|-------------------------2h3p2p0-|------------------|-2--2----2--2---0-|
|---------------------------------|------------------|-2--2----2--2-----|
|---------------------------------|------------------|-0----4--0--0-4---|
|---------------------------------|-0----------------|------------------|
|
| Q        E      E +E  E E     E   Q  E E +E  E E E   Q  E E +E  E E E
|----------0------0-(0)-0-0-----0-|----0-0-(0)-0-0-0-|----0-0-(0)-0-0-0-|
|----------0------0-(0)-0-0-----0-|----0-0-(0)-0-0-0-|----0-0-(0)-0-0-0-|
|----------1------1-(1)-1-1-----1-|----1-1-(1)-1-1-1-|----2-2-(2)-2-2-2-|
|-2--------2------2-(2)-2-2-----2-|-2--2-2-(2)-2-2-2-|-2--2-2-(2)-2-2-2-|
|---------------------------------|------------------|-0----------------|
|---------------------------------|------------------|------------------|


                                                            |--3---|
  Q  E E  E  E Q     Q  a  Q     E  Q   E   a  Q   a  Q     E  E   E E E
|------------------|----0-(0)-------0-----|-0-(0)--0-(0)------------------|
|------------------|----3-(3)-------3-----|-3-(3)--3-(3)------------------|
|-2--2----2--------|----2h=4-----2--4---0-|-2h=4---2h=4-----3p=2p==0------|
|-2--2----2--------|----------------------|--------------------------2-0--|
|-0--0-4--0--------|----------------------|-------------------------------|
|------------3-0---|-0--------------------|-------------------------------|
|
| Q  E E +E  E E E   Q     E  E +E  E E E      Q      E  E +E    E   E E
|----0-0-(0)-0-0-0-|-------0--0-(0)-0-0-0-|-----------0--0-(0)---0---0-0--|
|----0-0-(0)-0-0-0-|-------0--0-(0)-0-0-0-|-----------0--0-(0)---0---0-0--|
|----2-2-(2)-2-2-2-|-------2--2-(2)-2-2-2-|-----------2--2-(2)---2---2-2--|
|-2--2-2-(2)-2-2-2-|-2-----2--2-(2)-2-2-2-|----2------2--2-(2)---2---2-2--|
|-0----------------|-0--------------------|----0--------------------------|
|------------------|----------------------|-------------------------------|


                                                          To Coda  &
  B7                 C7     B7       E
                                                             |-3-|
  Q  E E +E  E Q     Q.   E E E Q    E E     +E      E  E  E S S S E
|------------------|---------------|---3b3.5-(3)b3.5-0---------------|
|----0-0-(0)-0-0---|----------0-0--|--------------------3--0---------|
|----2-2-(2)-2-2---|-3------2-2-2--|-------------------------2h3p2-0-|
|-1--1-1-(1)-1-1---|-2------1-1-1--|---------------------------------|
|-2----------------|-3----2-2-2-2--|---------------------------------|
|------------------|---------------|---------------------------------|
|
| Q  E E +E  E E E   Q.   E E E Q    Q        E      E +E  E E     E
|----2-2-(2)-2-2-2-|------------2--|----------0------0-(0)-0-0-----0-|
|----0-0-(0)-0-0-0-|----------0-0--|----------0------0-(0)-0-0-----0-|
|----2-2-(2)-2-2-2-|-3------2-2-2--|----------1------1-(1)-1-1-----1-|
|-1--1-1-(1)-1-1-1-|-2------1-1-1--|-2--------2------2-(2)-2-2-----2-|
|-2----------------|-3----2-2-2-2--|---------------------------------|
|------------------|---------------|---------------------------------|


                     Verse
                      E
  Q  E E +E  E E E    Q  E E  E  E E E   E E E E  E  E E E
|------------------||----0-------0-----|-0---0----0--0---0-|
|----0-------------||----0-------0-----|-0---0----0--0---0-|
|------0-(0)---0-2-||------------1-----|-------------------|
|-2----2-(2)-2-----||----------------0-|-2---2----2--2---2-|
|------------------||---------2--------|-------4-------4---|
|------------------||-0----------------|-------------------|
|
| Q  E E +E  E E E    Q  E E +E  E E E   Q   E E +E  E E E
|----0-0-(0)-0-0-0-||----0-0-(0)-0-0-0-|-----0-0-(0)-0-0-0-|
|----0-0-(0)-0-0-0-||----0-0-(0)-0-0-0-|-----0-0-(0)-0-0-0-|
|----1-1-(1)-1-1-1-||----1-1-(1)-1-1-1-|-----1-1-(1)-1-1-1-|
|-2--2-2-(2)-2-2-2-||-2--2-2-(2)-2-2-2-|-2---2-2-(2)-2-2-2-|
|------------------||------------------|-------------------|
|------------------||------------------|-------------------|


  +Q   E E  E  Q   E   Q  E E  E  E E E
|-(0)--0----0--0-----|-0--0----0------0-|
|-(0)--0----0--0-----|-0--0----0------0-|
|--------------------|------------------|
|-(2)--2----2--2---0-|-2--2-0--2--0---0-|
|--------4-----------|--------------4---|
|--------------------|------------------|
|
|  Q   E E +E  E E E   Q  E E +E  E E E
|------0-0-(0)-0-0-0-|----0-0-(0)-0-0-0-|
|------0-0-(0)-0-0-0-|----0-0-(0)-0-0-0-|
|------1-1-(1)-1-1-x-|----1-1-(1)-1-1-1-|
|--2---2-2-(2)-2-2-0-|-2--2-2-(2)-2-2-2-|
|--------------------|------------------|
|--------------------|------------------|


  +Q   E E  E  E E E   Q  E E +E  E E E
|-(0)--0-------0-----|-0--0-0-(0)-----0--|
|-(0)--0-------0-----|-0--0-0-(0)-----0--|
|--------------------|-------------------|
|-(0)--2----2--------|-2--0-2-(2)-0---0--|
|--------4-------4-2-|--------------4----|
|--------------------|-------------------|
|
|  Q   E E +E  E E E   Q  E E +E  E E E
|------0-0-(0)-0-0-0-|----0-0-(0)-0-0-0--|
|------0-0-(0)-0-0-0-|----0-0-(0)-0-0-0--|
|------1-1-(1)-1-1-1-|----1-1-(1)-1-1-x--|
|------2-2-(2)-2-2-2-|-2--2-2-(2)-2-2-0--|
|--------------------|-------------------|
|--0-----------------|-------------------|


                               D.S. al Coda
                  E
  E E Q  H      E E E E  E  E E E   E E Q  H
|-------------|---0-0-0--0--0-0-0-|-0-----------||
|-------------|---0-0-0--0--0-0-0-|-0-----------||
|-------------|---1-1-1--1--1-1-1-|-1-----------||
|-------------|---2-2-2--2--2-2-2-|-2-----------||
|-------------|-------------------|-------------||
|-0-----------|-------------------|-------------||
|
| E E Q  H      E E E E +E  E E E   E E Q  H
|-------------|-----0-0-(0)-0-0-0-|-0-----------||
|-------------|-----0-0-(0)-0-0-0-|-0-----------||
|-------------|-----1-1-(1)-1-1-1-|-1-----------||
|-2-----------|---2-2-2-(2)-2-2-2-|-2-----------||
|-------------|-------------------|-------------||
|-------------|-------------------|-------------||


                     Verse
  &
                      E
  Q  E E +E  E E E    Q  E E  E  E E E   E E E E  E  E E E
|------------------||----0-------0-----|-0---0-------0---0-|
|------------------||----0-------0-----|-0---0-------0---0-|
|----0-------------||------------------|-------------------|
|-2----2-(2)---0-2-||----2-------------|-0-----------0---0-|
|------------2-----||------4--2----4-2-|-----4-4--2----4---|
|------------------||-0----------------|-------------------|
|
| Q  E E +E  E E E    Q  E E +E  E E E   Q   E E +E  E E E
|----0-0-(0)-0-0-0-||----0-0-(0)-0-0-0-|-----0-0-(0)-0-0-0-|
|----0-0-(0)-0-0-0-||----0-0-(0)-0-0-0-|-----0-0-(0)-0-0-0-|
|----1-1-(1)-1-1-1-||----1-1-(1)-1-1-1-|-----1-1-(1)-1-1-1-|
|-2--2-2-(2)-2-2-2-||-2--2-2-(2)-2-2-2-|-2---2-2-(2)-2-2-2-|
|------------------||------------------|-------------------|
|------------------||------------------|-------------------|


  Q  Q    E  E E E   Q  a  E  E a  E  a Q   E
|----0-------0-----|-0--0-(0)---0-(0)-0-------|
|----0-------0-----|-0------------------------|
|------------------|----0h=1----0h=1--0h1-----|
|----2-------0-----|-0----------------------0-|
|---------2--------|--------------------------|
|-0--------------0-|--------------------------|
|
| Q  E E +E  E E E   Q     E  E   +E    E E E
|----0-0-(0)-0-0-0-|-------0--0---(0)---0-0-0-|
|----0-0-(0)-0-0-0-|-------0--0---(0)---0-0-0-|
|----1-1-(1)-1-1-1-|-------1--1---(1)---1-1-1-|
|-2--2-2-(2)-2-2-2-|-2-----2--2---(2)---2-2-2-|
|------------------|--------------------------|
|------------------|--------------------------|


  E E E E  E  E E E   E E E E  E  E E E
|-----0-0-----0-----|-0---0----0--------|
|-----0-0-----0-----|-0---0----0--------|
|-------------------|-------------------|
|-----0-------0-----|-0---0---------0-2-|
|----------2----4---|-------4-----2-----|
|-0---------------0-|-------------------|
|
| E E E E +E  E E E   E E E E +E  E E E
|-----0-0-(0)-0-0-0-|-----0-0-(0)-0-0-0-|
|-----0-0-(0)-0-0-0-|-----0-0-(0)-0-0-0-|
|-----1-1-(1)-1-1-1-|-----1-1-(1)-1-1-1-|
|-2---2-2-(2)-2-2-2-|-2---2-2-(2)-2-2-2-|
|-------------------|-------------------|
|-------------------|-------------------|


                  E
  E E Q  H      E E E E  E  E E E   q   Q  H
|-------------|---0-0-0--0--0-0-0-|-0-----------||
|-------------|---0-0-0--0--0-0-0-|-0-----------||
|-------------|---1-1-1--1--1-1-1-|-1-----------||
|-------------|---2-2-2--2--2-2-2-|-2-----------||
|-------------|-------------------|-------------||
|-0-----------|-------------------|-------------||
|
| E E Q  H      E E E E +E  E E E   e E Q  H
|-------------|-----0-0-(0)-0-0-0-|-0-----------||
|-------------|-----0-0-(0)-0-0-0-|-0-----------||
|-------------|-----1-1-(1)-1-1-1-|-1-----------||
|-2-----------|---2-2-2-(2)-2-2-2-|-2-----------||
|-------------|-------------------|-------------||
|-------------|-------------------|-------------||


 Chorus
  E
                          |-3-|
  E E     +E      E  E  E S S S E
|---3b3.5-(3)b3.5-0---------------|
|--------------------3--0---------|
|-------------------------2h3p2p0-|
|---------------------------------|
|---------------------------------|
|---------------------------------|
|
| Q        E      E +E  E E     E
|----------0------0-(0)-0-0-----0-|
|----------0------0-(0)-0-0-----0-|
|----------1------1-(1)-1-1-----1-|
|-2--------2------2-(2)-2-2-----2-|
|---------------------------------|
|---------------------------------|


                                             |-3-|
  Q  E E  E  E E E   E E     +E      E  E  E S S S E
|----0-------0-----|---3b3.5-(3)b3.5-0---------------|
|----0-------0-----|--------------------3--0---------|
|------------------|-------------------------2h3p2p0-|
|-2----------------|---------------------------------|
|------2--4----4-2-|---------------------------------|
|------------------|---------------------------------|
|
| Q  E E +E  E E E   Q        E      E +E  E E     E
|----0-0-(0)-0-0-0-|----------0------0-(0)-0-0-----0-|
|----0-0-(0)-0-0-0-|----------0------0-(0)-0-0-----0-|
|----1-1-(1)-1-1-1-|----------1------1-(1)-1-1-----1-|
|-2--2-2-(2)-2-2-2-|-2--------2------2-(2)-2-2-----2-|
|------------------|-0-------------------------------|
|------------------|---------------------------------|


                      A
  Q  E E  E  E  E E   Q  E E  E  E E E   Q  E E  E  E Q
|----0----0---------|------------------|------------------|
|----0----0---------|------------------|------------------|
|-------------------|-2--2----2--2---0-|-2--2----2--------|
|-2--2--------------|-2--2----2--2-----|-2--2----2--------|
|------2------------|-0----4--0--0-4---|-0--0-4--0--------|
|------------0-/4-4-|------------------|------------3-0---|
|
| Q  E E +E  E  E E   Q  E E +E  E E E   Q  E E +E  E E E
|----0-0-(0)-0--0-0-|----0-0-(0)-0-0-0-|----0-0-(0)-0-0-0-|
|----0-0-(0)-0--0-0-|----0-0-(0)-0-0-0-|----0-0-(0)-0-0-0-|
|----1-1-(1)-1--1-1-|----2-2-(2)-2-2-2-|----2-2-(2)-2-2-2-|
|-2--2-2-(2)-2--2-2-|-2--2-2-(2)-2-2-2-|-2--2-2-(2)-2-2-2-|
|-------------------|-0----------------|-0----------------|
|-------------------|------------------|------------------|


  E7
  Q   a   Q     a   E   a   Q     E
|----10-(10)---10-(10)-10-(10)------|
|----10h=12----10h=12--10h=12----10-|
|-----------------------------------|
|-----------------------------------|
|-----------------------------------|
|-----------------------------------|
|
| Q       E  E     +E       E  E  E
|---------0--0-----(0)------0--0--0-|
|---------0--0-----(0)------0--0--0-|
|---------1--1-----(1)------1--1--1-|
|-2-------2--2-----(2)------2--2--2-|
|-----------------------------------|
|-----------------------------------|


                                             B7
   a   Q    a   Q     S    S E S   +S    E   Q  E E +E  E E E
|-10-(10)--10-(10)-------------------------|-2--2-2-(2)-2-2-2--|
|-10h=12---10h=12----12--/10---8b9-(8)b9-0-|-0--0-0-(0)-0-0-0--|
|----------------------------9-----------0-|-2--2-2-(2)-2-2-2--|
|------------------------------------------|-1--1-1-(1)-1-1-1--|
|------------------------------------------|-2--2-2-(2)-2-2-2--|
|------------------------------------------|-------------------|
|
|      Q        E  E +E      E E         E   Q  E E +E  E E E
|---------------0--0-(0)-----0-0---------0-|-2--2-2-(2)-2-2-2--|
|---------------0--0-(0)-----0-0---------0-|-0--0-0-(0)-0-0-0--|
|---------------1--1-(1)-----1-1---------1-|-2--2-2-(2)-2-2-2--|
|------2--------2--2-(2)-----2-2---------2-|-1--1-1-(1)-1-1-1--|
|------------------------------------------|-2--2-2-(2)-2-2-2--|
|------------------------------------------|-------------------|


  C7     B7        E
  Q.   E E E E E   Q  Q    E  Q   E   Q  Q    S  S S S E E
|----------------|----0----0--------|-0--------------------||
|----------------|------------2-----|----3-----------------||
|-3--------------|----------------4-|---------2h=3p2p0-----||
|-2------x---0-2-|------------------|------------------2---||
|-3----2---2-----|------------------|--------------------2-||
|----------------|-0----------------|----------------------||
|
| Q.   E E E Q     Q  E E +E  E E E   Q  E E +E    E   E E
|------------2---|----0-0-(0)-0-0-0-|----0-0-(0)---0---0-0-||
|----------0-0---|----0-0-(0)-0-0-0-|----0-0-(0)---0---0-0-||
|-3------2-2-2---|----1-1-(1)-1-1-1-|----1-1-(1)---1---1-1-||
|-2------1-1-1---|-2--2-2-(2)-2-2-2-|-2--2-2-(2)---2---2-2-||
|-3----2-2-2-2---|------------------|----------------------||
|----------------|------------------|----------------------||


 Verse
  E
  Q  E E  E  E E E   E E E E  E  Q   E   Q  E E  E  Q   E
|----0-------0-----|-----0-0-----0---0-|----0-------0-----|
|----0-------0-----|-----5-5-----5---5-|----5----3--5---3-|
|------------------|----------7--------|------6-----------|
|----2---------2---|-------------------|------------------|
|------4--2------4-|-------------------|------------------|
|-0----------------|-0-----------------|-0----------------|
|
| Q  E E +E  E E E   Q   E E +E  E E E   Q  E E +E  E E E
|----0-0-(0)-0-0-0-|-----0-0-(0)-0-0-0-|----0-0-(0)-0-0-0-|
|----0-0-(0)-0-0-0-|-----0-0-(0)-0-0-0-|----0-0-(0)-0-0-0-|
|----1-1-(1)-1-1-1-|-----1-1-(1)-1-1-1-|----1-1-(1)-1-1-1-|
|-2--2-2-(2)-2-2-2-|-2---2-2-(2)-2-2-2-|-2--2-2-(2)-2-2-2-|
|------------------|-------------------|------------------|
|------------------|-------------------|------------------|


  Q  E  E   E  E E E   E E E E  E  E E E   a  E  E E E  E  E E E
|-----------0----0-0-|-----0-------------|-----------------------|
|-5--5------3------0-|----------3--3-----|-3-(3)---3-3--3--------|
|------(6)-----4-2---|----------2--4-----|-2h=4----4-4--2--0-----|
|--------------------|-----2-------------|--------------0----2-0-|
|--------------------|-------4-------4-2-|-----------------------|
|--------------------|-0-----------------|-----------------------|
|
| Q  E  E  +E  E E E   Q   E E +E  E E E      Q    E E +E  E E E
|----0--0--(0)-0-0-0-|-----0-0-(0)-0-0-0-|---------0-0-(0)-0-0-0-|
|----0--0--(0)-0-0-0-|-----0-0-(0)-0-0-0-|---------0-0-(0)-0-0-0-|
|----1--1--(1)-1-1-1-|-----1-1-(1)-1-1-1-|---------1-1-(1)-1-1-1-|
|-2--2--2--(2)-2-2-2-|-2---2-2-(2)-2-2-2-|----2----2-2-(2)-2-2-2-|
|--------------------|-------------------|-----------------------|
|--------------------|-------------------|-----------------------|


                  E
  E E Q  H      E E E E  E  E E E   Q   Q  H
|-0-----------|---0-0-0--0--0-0-0-|-0-----------||
|-------------|---0-0-0--0--0-0-0-|-0-----------||
|-------------|---1-1-1--1--1-1-1-|-1-----------||
|-2-----------|---2-2-2--2--2-2-2-|-2-----------||
|-------------|-------------------|-------------||
|-------------|-------------------|-------------||
|
| E E Q  H      E E E E +E  E E E   E E Q  H
|-------------|-----0-0-(0)-0-0-0-|-0-----------||
|-------------|-----0-0-(0)-0-0-0-|-0-----------||
|-------------|-----1-1-(1)-1-1-1-|-1-----------||
|-2-----------|---2-2-2-(2)-2-2-2-|-2-----------||
|-------------|-------------------|-------------||
|-------------|-------------------|-------------||


  B7                 C7
  Q  E E +E  E E E   Q.   E  E  E E E
|------------------|------------------|
|----0-0-(0)-0-0---|------------------|
|----2-2-(2)-2-2---|-3----------------|
|-1--1-1-(1)-1-1---|-2------------0-2-|
|-2----------------|-3----0-(2)-2-----|
|------------------|------------------|
|
| Q  E E +E  E E E   Q.   E  E  E Q
|-2--2-2-(2)-2-2-2-|--------------2---|
|-0--0-0-(0)-0-0-0-|------------0-0---|
|-2--2-2-(2)-2-2-2-|-3-------2--2-2---|
|-1--1-1-(1)-1-1-1-|-2-------1--1-1---|
|-2--2-2-(2)-2-2-2-|-3----2--2--2-2---|
|------------------|------------------|


  E                                     B7
  Q  E E  E  Q   E   Q  E E +E  E E E   Q  E E +E  E E E
|------------0-----|----0-------------|------------------|
|----3----3--5-----|-3----3-(3)-------|----0-0-(0)-------|
|----4-4--4--4---4-|-4----4-(4)-4-2-0-|----2-2-(2)-----0-|
|------------------|------------------|----------------2-|
|------------------|------------------|-2----------2-2---|
|-0----------------|------------------|------------------|
|
| Q  E E +E  E E E   Q  E E +E  E E E   Q  E E +E  E E E
|----0-0-(0)-0-0-0-|----0-0-(0)-0-0-0-|-2--2-2-(2)-2-2-2-|
|----0-0-(0)-0-0-0-|----0-0-(0)-0-0-0-|-0--0-0-(0)-0-0-0-|
|----1-1-(1)-1-1-1-|----1-1-(1)-1-1-1-|-2--2-2-(2)-2-2-2-|
|-2--2-2-(2)-2-2-2-|-2--2-2-(2)-2-2-2-|-1--1-1-(1)-1-1-1-|
|------------------|------------------|-2--2-2-(2)-2-2-2-|
|------------------|------------------|------------------|


  C7      B7        E
  Q   E E Q   E E   E E E E  E  Q   E   E E a Q    E  E E E
|-----------------|-----0-------0-----|-0-------------------|
|---------------0-|-----3----3------3-|---3-----------------|
|-0---0-----------|-----4-4--4--------|-----2s4----2--0-----|
|-2---------------|-------------------|-----------------2-0-|
|-3-----3-2---2---|-------------------|---------------------|
|-----------------|-0-----------------|---------------------|
|
| Q.    E E E Q     Q   E E +E  E E E   Q     E E +E  E E E
|-------------2---|-----0-0-(0)-0-0-0-|-------0-0-(0)-0-0-0-|
|-----------0-0---|-----0-0-(0)-0-0-0-|-------0-0-(0)-0-0-0-|
|-3-------2-2-2---|-----1-1-(1)-1-1-1-|-------1-1-(1)-1-1-1-|
|-2-------1-1-1---|-2---2-2-(2)-2-2-2-|-2-----2-2-(2)-2-2-2-|
|-3-----2-2-2-2---|-------------------|---------------------|
|-----------------|-------------------|---------------------|


  B7                 C7      B7
  Q  E E +E  E E E   Q   E E E E E E
|------0-(0)-0-----|-----------------|
|----0-0-(0)-0-----|-----------------|
|----2-2-(2)-2-----|---------2-0-----|
|----1-1-(1)-1-----|-2---1-------0-2-|
|-2------------0-2-|-3-----2---------|
|------------------|-----------------|
|
| Q  E E +E  E E E   Q.    E E E Q
|-2--2-2-(2)-2-2-2-|-------------2---|
|-0--0-0-(0)-0-0-0-|-----------0-0---|
|-2--2-2-(2)-2-2-2-|-3-------2-2-2---|
|-1--1-1-(1)-1-1-1-|-2-------1-1-1---|
|-2--2-2-(2)-2-2-2-|-3-----2-2-2-2---|
|------------------|-----------------|


  E
  Q  E E  E  Q   E   E E E E  E  E E E   Q  Q  H
|----0----0--0-----|---0-0-0--0--0-0-0-|-0----------*|
|----3----3--5-----|---0-0-0--0--0-0-0-|-0----------*|
|------4-----------|---1-1-1--1--1-1-1-|-1----------*|
|------------------|---2-2-2--2--2-2-2-|-2----------*|
|------------------|-------------------|------------*|
|-0----------------|-------------------|------------*|
|
| Q  E E +E  E E E   Q   E E +E  E E E   Q  Q  H
|----0-0-(0)-0-0-0-|-----0-0-(0)-0-0-0-|-0----------*|
|----0-0-(0)-0-0-0-|-----0-0-(0)-0-0-0-|-0----------*|
|----1-1-(1)-1-1-1-|-----1-1-(1)-1-1-1-|-1----------*|
|-2--2-2-(2)-2-2-2-|-2---2-2-(2)-2-2-2-|-2----------*|
|------------------|-------------------|------------*|
|------------------|-------------------|------------*|


Duration Legend
---------------
W - whole; H - half; Q - quarter; E - 8th; S - 16th; T - 32nd; X - 64th; a - acciaccatura
+ - note tied to previous; . - note dotted; .. - note double dotted
Uncapitalized letters represent notes that are staccato (1/2 duration)
Irregular groupings are notated above the duration line
Duration letters will always appear directly above the note/fret number it represents the
duration for.  Duration letters with no fret number below them represent rests.  Multi-
bar rests are notated in the form Wxn, where n is the number of bars to rest for.  Low
melody durations appear below the staff

Tablature Legend
----------------
 h   - hammer-on
 p   - pull-off
 b   - bend
 pb  - pre-bend
 r   - bend release (if no number after the r, then release immediately)
 /\  - slide into or out of (from/to "nowhere")
 s   - legato slide
 S   - shift slide
  - natural harmonic
[n]  - artificial harmonic
n(n) - tapped harmonic
 ~   - vibrato
 tr  - trill
 T   - tap
 TP  - trem. picking
 PM  - palm muting
\n/  - tremolo bar dip; n = amount to dip
 \n  - tremolo bar down
 n/  - tremolo bar up
/n\  - tremolo bar inverted dip
 =   - hold bend; also acts as connecting device for hammers/pulls
 <>  - volume swell (louder/softer)
 x   - on rhythm slash represents muted slash
 o   - on rhythm slash represents single note slash

Misc Legend
-----------
 |  - bar
||  - double bar
||o - repeat start
o|| - repeat end
*|  - double bar (ending)
 :  - bar (freetime)
 $  - Segno
 &  - Coda
Tempo markers -  = BPM(8/16=s8/s16), where s8 = swing 8ths, s16 = swing 16ths





Comments


Popular Elvis Presley tabs & chords
Baby, Let's Play House Chords
Gi Blues 1 Chords
Help Me Make It Through The Night Chords
I Forgot To Remember To Forget Chords
In The Ghetto Tabs
One Night Tabs
Thats Alright Mama Tabs
I Really Dont Want To Know Ukulele
Patch It Up Ukulele
Yoga Is As Yoga Does Ukulele


Song lyrics



↑ Back to top | Tablatures and chords are parodies/interpretations of the original songs. You may use it for private study, scholarship, research or language learning purposes only
© 2014 AZChords.com Contact us | Privacy policy | DMCA | Add/correct tabs | Request tabs | Top 50 tabs