» » »

Elvis Presley, King Creole Tabs (ver.2)

Artists:  A B C D E F G H I J K L M N O P Q R S T U V W X Y Z # 

King Creole Tabs (ver.2)

Elvis Presley Tabs
 Rating:
4/5 (4 votes)
King Creole lessons Tabs too difficult? Try these video lessons and learn fast
1
                Elvis Presley - King Creole

Intro:

e|--------------------   after---------| x7
B|----------------------------------\6-|
G|-------------------------------------|
D|-------------------------------------|
A|-------------------------------------|
E|--6------6-6\1-3-1—------------------|

^This 3 times more^                   ^without^

e|-----------------------|--------------------|-----------------------|
B|-----------------------|--------------------|-----------------------|
G|-----------3--5--3-----|--------------------|-----------3--5--3-----|
D|--------5-----------5--|--------3--5--3-----|--------5-----------5--|
A|-----6-----------------|-----5-----------5--|-----6-----------------|
E|-----------------------|--6-----------------|-----------------------|
	    (x2)		    (x2)

e|-----------------------|--------------------|-----------------------|
B|-----------------------|--------------------|-----------------------|
G|--------5--7--5--------|--------3--5--3-----|-----------------------|
D|-----7-----------7-----|-----5-----------5--|--------3--5--3--------|
A|--5--------------------|--6-----------------|-----5-----------5-----|
E|-----------------------|--------------------|--6--------------------|
							   (x3)
^This whole part 2 times^

e|-------------------------------------------------------|
B|-------------------------------------------------------|
G|-------------------------------------------------------|
D|-------------------------------------------------------|
A|-------------------------------------------------------|
E|--6--6--6--6--6--6--6--6--6--6--6—-6—-6—-6—-6-—6----\6-|

e|------------------------------------------------------------------|
B|------------------------------------------------------------------|
G|------------------------------------------------------------------|
D|------------------------------------------------------------------|
A|------------------------------------------------------------------|
E|--18--18--18--18--18--18--18--18--18--18--18-18--18--18--18--18---|

e|--18\---------------------------------8b--6---------------------------|
B|-------8/11-11-10-11-9-11-8-11-7-11-6-------9-6----6---6---6---6------|
G|------------------------------------------------9b---9---8---7---6-7--|
D|----------------------------------------------------------------------|
A|----------------------------------------------------------------------|
E|----------------------------------------------------------------------|

e|-----------------------------------------------6-9b-6-----------------|
B|--------------------------------6------6---6-8--------9-6-------------|
G|------6---6---6---6-----6----8b---8------8----------------9-----------|
D|--8/8---8---8---8-----8---8-------------------------------9-----------|
A|----------------------------------------------------------------------|
E|----------------------------------------------------------------------|


e|----------------------------------------------------------|
B|--6--6-6-6-6-6-6-6-6-6-6-6-6------------------------------|
G|-----9-9-9-9-8-8-8-8-7-7-7-7------------------------------|
D|----------------------------------------------------------|
A|----------------------------------------------------------|
E|----------------------------------------------------------|

e|--------------------|----------------|--------------------|
B|--------------------|----------------|--------------------|
G|--------------------|------5--7-5----|--------------------|
D|--------3--5--3-----|----7--------7--|------3-5-3---------|
A|-----5-----------5--|--8-------------|----5-------5-------|
E|--6-----------------|----------------|--6-----------------|

e|-----------------------5/6----6---|
B|----------------5/6----5/6----6---|
G|---------6/7----6/7-----------7---|
D|--7/8----7/8----------------------|
A|--7/8-----------------------------|
E|----------------------------------|

Lyrics:

Verse 1: (Bb)
There's a man in New Orleans who plays rock and roll
He's a guitar man with a great big soul
He lays down a beat like a ton of coal
He goes by the name of King Creole

Chorus:
              Eb
You know he's gone, gone, gone
                            Bb
Jumpin' like a catfish on a pole
              F
You know he's gone, gone, gone
Eb                  Bb
Hip shaking King Creole

Verse 2: (Bb)
When the king starts to do it it's as good as done
He holds his guitar like a tommy gun
He starts to growl from way down his throat
He bends a string and that's all she wrote

CHORUS  Eb  Bb  F  Eb Bb

Verse 3: (Bb)
Well, he sings a song about a crawdad hole
He sings a song about a jelly roll
He sings a song about a pork and greens
He sings some blues about New Orleans

CHORUS  Eb  Bb  F  Eb Bb

Instrumental: Bb  Eb Bb F Eb Bb

Verse 4: (Bb)
Well he plays something evil then he plays something sweet
No matter how he plays you got to get up on your feet
When he gets the rockin' fever baby heaven sakes
He don't stop playin' til his guitar breaks

CHORUS  Eb  Bb  F  Eb Bb

              F
You know he's gone, gone, gone
Eb                  Bb
Hip shaking King Creole
            
Submit corrections

comments powered by Disqus
↑ Back to top | Elvis Presley Tabs for King Creole. Lyrics for acoustic guitar and electric guitar. 1 Tablatures and chords are parodies/interpretations of the original songs. You may use it for private study, scholarship, research or language learning purposes only