» » »

Devil In Disguise Tabs (ver.2)

Artists:  A B C D E F G H I J K L M N O P Q R S T U V W X Y Z # 

Devil In Disguise Tabs (ver.2)

Elvis Presley
Rating:
0/5 (0 votes)

Hard to play? Try these video lessons and learn fast.
                -------------------------------------------------------------------------------
                     Devil in Disguise- Elvis Presley
-------------------------------------------------------------------------------
Tuning: Standard

my interpretation of the solo...

e|-------------------------------------------------------------------------|
B|---9/10--9/10--9/10--9/10--9/10------------------------------------------|
G|---------------------------------10-10---------------------------10------|
D|---------------------------------------10-10--12-10-----10--10h12--------|
A|----------------------------------------------12-10--12------------------|
E|-------------------------------------------------------------------------|

e|------------------------8h10-13-13--13-----------------------------------|
B|----------------------------------------13----9-11-12------9-11-9--------|
G|-------10-------10-------------------------10----------10----------------|
D|--10h12----10h12---------------------------------------------------------|
A|-------------------------------------------------------------------------|
E|-------------------------------------------------------------------------|

Listen for the strumming patterns for these chords...
e|------------------------------6------8------8----------------------------|
B|------------------------------6------8-----10----------------------------|
G|---10-8-10---8-10------8-10---7------9-----10----------------------------|
D|------------------------------8-----10-----10----------------------------|
A|------------------------------8-----10------8----------------------------|
E|------------------------------6------8-----------------------------------|
                                Bb     C      F

/  slide up
h  hammer-on

============================================================================
            
Hard to play? Try these video lessons and learn fast. | Correct




comments powered by Disqus
↑ Back to top | Tablatures and chords are parodies/interpretations of the original songs. You may use it for private study, scholarship, research or language learning purposes only