>
 >
Cant Help Falling In Love With You

Cant Help Falling In Love With You Guitar Tabs

Elvis Presley - Cant Help Falling In Love With You chords, tabs, tablatures, lyrics

Guitar lessons | Add/correct | Request | Top 50 tabs Artists:  A B C D E F G H I J K L M N O P Q R S T U V W X Y Z 0-9

Cant Help Falling In Love With You Guitar Tabs – Elvis Presley

CD, Sheet music, Poster

Do you like Cant Help Falling In Love With You? Share with your friends now
ChordsChords v2Chords v10Chords v3Chords v4Chords v5Chords v6Chords v7Chords v8Chords v9TabsTabs v2Tabs v3UkuleleUkulele v2
Can't Help Falling In Love (Instrumental)
Elvis Presley

rj pasive 
wazzup wazzup!!!...instrumental lng 'to...gitara na ang kumakanta...ndi na kau
magsasayang ng boses...well, continuous ang pag-play nito...right timing na lng
and COMMON SENSE!!!...cute 'to pag na-perfect nyo...PLEASE RATE THIS ACCURATELY!

INTRO:
         F       G       Am      G          C        G       C
E||------------------------------------------0-----1---0---------------------------0--------|
B||------------------0---------1---------3-----------------------3---------1-----1---1------|
G||---0----2--------------0---------2-----------------------0---------0--------0-------0----|
D||-------------3-------0---0-----2---2---------0---------2---2-----0---0----2-----------2--|
A||-----------3---3------------0---------2-------------3-------------------3----------------|
E||--------1---------3-------------------------------------------3--------------------------|

VERSE:

      C         G        Am                       F          C         G
E||-------------3-----------------------------0---1----------0-----------------------0------|
B||---1-------------------1----------------3-----------1----------1----3--------------------|
G||--------0---------0---------2---------------------2---2------0---0-------0---------0-----|
D||------2---2-----0---0-----2---2-----2----------3-----------------------0----------0------|
A||---3---------2---------0----------------------------------3---------2------0----2--------|
E||---------------------------------3--------------------------------------------3----------|

         F       G       Am      G          C        G       C
E||------------------------------------------0-----1---0---------------------------0--------|
B||------------------0---------1---------3-----------------------3---------1-----1---1------|
G||--------2--------------0---------2-----------------------0---------0--------0-------0----|
D||-------------3-------0---0-----2---2---------0---------2---2-----0---0----2-----------2--|
A||-----------3---3------------0---------2-------------3-------------------3----------------|
E||--------1---------3-------------------------------------------3--------------------------|

( repeat verse )

BRIDGE:

E||---0----------------------0-----------------------0-------------------------------------|
B||-0------12--10----------0------12--10-----------0------12--10------10--10--8---6--6---1-|
G||-0---12-----------9-----0---12------------9-----0---12-----------9----------------------|
D||---------------10---10-----------------10---10----------------10-------0----------0-----|
A||------------0-----------------------0----------------------0-----------------0--------0-|
E||-0----------------------0-----------------------0---------------------------------------|

VERSE (high):

      C         G        Am                       F          C         G
E||-------------3---------5-------------------0---1----------3-----------------------0------|
B||---1-----------------------5------------3-----------1----------1----3--------------------|
G||--------0---------0------5---5------0-------------2---2------0---0-------0---------0-----|
D||------2---3-----0---0--------------------------3----------2------------0----------0------|
A||---3---------2---------0--------------------------------------------2------0----2--------|
E||---------------------------------3--------------------------------------------3----------|

         F       G       Am      G          C          G         C
E||------------------------------------------0-----1---0------------------------------------|
B||------------------0---------1---------3--------------------------3-----------1-----------|
G||--------2--------------0---------2-------------------------0-----------0-----------0-----|
D||-------------3-------0---0-----2---2---------0----------2-----2-----0-----0-----2-----2--|
A||-----------3---3------------0---------2-------------3------------------------3-----------|
E||--------1---------3----------------------------------------------3-----------------------|

OUTRO:

      G7             F           G            Am            G
E||---1---0-----------------------------------------------------0-----1---------------------|
B||----------3---1---1-----1-----0-----0------1-------------3-------------------------------|
G||---------------------2-----2-----0-----0----------2--------------------------------------|
D||-----------------------------------------------2-----2----------0------------------------|
A||-------------------------------------------0-------------2-------------------------------|
E||---3------0-------1-----------3----------------------------------------------------------|

      C				  G			   C
E||---0-----------------------------3-------------------------------------0----3----8-------|
B||-----------------1----------------------------0------------1--------1------------5-------|
G||----------0-------------0---------------0-----------0------------0-----------------------|
D||-------2-----2------2-------2--------0-----0-----0-----0------2--------------------------|
A||---3-------------------------------------------------------3-----------------------------|
E||---------------------------------3-------------------------------------------------------|


Hello sa lahat ng pipol out there!!!...lalo na sa PSU Lab. High School Goa, Cam. Sur...hi TINA!!!





Comments


Popular Elvis Presley tabs & chords
Bringing It Back Chords
Harbour Lights Chords
Love Me Chords
Only Fools Rush In Chords
Sentimental Me Chords
Hell Have To Go Tabs
Earth Boy Ukulele
First In Line Ukulele
Im Left Youre Right Shes Gone Ukulele
Oh Happy Day Ukulele


Song lyrics



↑ Back to top | Tablatures and chords are parodies/interpretations of the original songs. You may use it for private study, scholarship, research or language learning purposes only
© 2014 AZChords.com Contact us | Privacy policy | DMCA | Add/correct tabs | Request tabs | Top 50 tabs