>
 >
Can Help Falling In Love With You

Can Help Falling In Love With You Guitar Tabs

Elvis Presley - Can	 Help Falling In Love With You chords, tabs, tablatures, lyrics

Guitar lessons | Add/correct | Request | Top 50 tabs Artists:  A B C D E F G H I J K L M N O P Q R S T U V W X Y Z 0-9

Can Help Falling In Love With You Guitar Tabs – Elvis Presley

CD, Sheet music, Poster

Do you like Can Help Falling In Love With You? Share with your friends now
Tabs


e||---3-----------7-----------|--3-----------------5--7/-|
B||---------0-----------7-----|--------0-----------------|
G||------0-----0-----7-----7--|-----0-----0-----0--------|
D||---------------------------|--------------------------|
A||---------------------------|--------------------------|
E||---3-----------7-----------|--0-----------0-----------|

|--8-----------7-----------|--5---------------------|--0-----------2/----------|
|--------5-----------0-----|--------3----------3----|--------1-----------1-----|
|-----5-----5-----0-----0--|-----5-----5------------|-----0-----0-----2-----2--|
|--------------------------|--0-----------0---------|--------------0-----------|
|--0-----------------------|------------------------|--3-----------------------|
|--------------3-----------|------------------------|--------------------------|

|--3-----------5----7----8/---|--7-----------5/----------|
|--------0-----5--------------|--------0-----------3-----|
|-----0-----0--5--------------|-----0-----0-----5-----5--|
|-----------------------------|--------------0-----------|
|--------------0--------------|--------------------------|
|--0--------------------------|--3-----------------------|

|--3-----------3---------||   
|--------0-----0---------||   
|-----0-----0--0---------||   
|------------------------||  
|------------------------||  
|--3-----------3---------||   

||-----------2--0-----------|-----------2--0-----------|
||--------3-----------------|--------3-----------------|
||-----4-----------3--3--3--|-----4-----------3--3--3--|
||--4--------------4--4--4--|--4--------------4--4--4--|
||--2-----------------------|--2-----------------------|
||--------------0-----------|--------------0-----------|

|------------------------|--------------------2-----||
|--3----3----------3-----|--1-----------------1-----||
|--4------------4-----4--|--------0--------2-----2--||
|--4---------------------|-----2-----2--0-----------||
|--2---------------------|--0-----------------------||
|------------0-----------|--------------------------||

play this fast!

||----3-3-3---3-3-3---3-3-3---3-3-3---3-3-3---3-3-3/|
||------------------0---------------0---------------|
||----------0---------------0---------------0-------|
||--------------------------------------------------|
||--------------------------------------------------|
||--3-----------------------------------------------|

|----7-7-7---7-7-7---7-7-7---7-7-7---7-7-7---7-7-7/|
|------------------7---------------7---------------|
|----------7---------------7---------------7-------|
|--------------------------------------------------|
|--------------------------------------------------|
|--7-----------------------------------------------|

|----3-3-3---3-3-3---3-3-3---3-3-3---3-3-3---3-3-3-|-------5--7--|
|------------------0---------------0---------------|-------------|
|----------0---------------0---------------0-------|-------------|
|--------------------------------------------------|-------------|
|--------------------------------------------------|-------------|
|--0-----------------------------------------------|--0----------|

|----8-8-8---8-8-8---8-8-8---8-8-8---8-8-8---8-8-8/|
|------------------5---------------5---------------|
|----------5---------------5---------------5-------|
|--------------------------------------------------|
|--0-----------------------------------------------|
|--------------------------------------------------|

|----7-7-7---7-7-7---7-7-7---7-7-7---7-7-7---7-7-7/|
|------------------0---------------0---------------|
|----------0---------------0---------------0-------|
|--------------------------------------------------|
|--------------------------------------------------|
|--3-----------------------------------------------|

|----5-5-5---5-5-5---5-5-5---5-5-5---5-5-5---5-5-5-|------------|
|------------------3---------------3---------------|-------3----|
|----------5---------------5---------------5-------|------------|
|--0-----------------------------------------------|--0---------|
|--------------------------------------------------|------------|
|--------------------------------------------------|------------|

|----0-0-0---0-0-0---0-0-0---0-0-0---0-0-0---0-0-0-|
|------------------1---------------1---------------|
|----------0---------------0---------------0-------|
|--------------------------------------------------|
|--3-----------------------------------------------|
|--------------------------------------------------|
                                                   
|----2-2-2---2-2-2---2-2-2---2-2-2---2-2-2---2-2-2/|
|------------------1---------------1---------------|
|----------2---------------2---------------2-------|
|--0-----------------------------------------------|
|--------------------------------------------------|
|--------------------------------------------------|

|----3-3-3---3-3-3---3-3-3---3-3-3---3-3-3---3-3-3-|--5----7----8/---|
|------------------0---------------0---------------|--5--------------|
|----------0---------------0---------------0-------|--5--------------|
|--------------------------------------------------|-----------------|
|--------------------------------------------------|--0--------------|
|--0-----------------------------------------------|-----------------|

|----7-7-7---7-7-7---7-7-7---7-7-7---7-7-7---7-7-7/|
|------------------0---------------0---------------|
|----------0---------------0---------------0-------|
|--------------------------------------------------|
|--------------------------------------------------|
|--3-----------------------------------------------|

|----5-5-5---5-5-5---5-5-5---5-5-5---5-5-5---5-5-5/|
|------------------3---------------3---------------|
|----------5---------------5---------------5-------|
|--0-----------------------------------------------|
|--------------------------------------------------|
|--------------------------------------------------|

|----3-3-3---3-3-3---3-3-3---3-3-3---3-3-3---3-3-3-|--3~-----------||
|------------------0---------------0---------------|--0~-----------||
|----------0---------------0---------------0-------|--0~-----------||  End !
|--------------------------------------------------|---------------||
|--------------------------------------------------|---------------||
|--3-----------------------------------------------|--3~-----------||





Comments


Popular Elvis Presley tabs & chords
I Believe Chords
It Hurts Me Chords
No More Chords
Youre The Devil In Disguise 1 Chords
Little Sister Tabs
Love Me 2 Tabs
My Baby Left Me Tabs
Rubberneckin Tabs
Big Hunk O Love Ukulele
Blue Moon Of Kentucky Ukulele


Song lyrics



↑ Back to top | Tablatures and chords are parodies/interpretations of the original songs. You may use it for private study, scholarship, research or language learning purposes only
© 2014 AZChords.com Contact us | Privacy policy | DMCA | Add/correct tabs | Request tabs | Top 50 tabs