» » »

Elvis Presley, Any Day Now Bass tabs (ver.1)

Artists:  A B C D E F G H I J K L M N O P Q R S T U V W X Y Z # 

Any Day Now Bass tabs (ver.1)

Elvis Presley Tabs
 Rating:
4/5 (4 votes)
Any Day Now lessons Tabs too difficult? Try these video lessons and learn fast
1
                Elvis Presley
Bass Tab
Bassist: Mike Leech or Tommy Cogbill

120BPM, 4/4

Intro

|--------------|---------------|---------------|----------------|
|--------------|---------------|---------------|----------------|
|-5---5-5-5--5-|-5-5--5-5-5--5-|-5-5--5-5-5--5-|-5-5--5-5-5--5--|
|--------------|---------------|---------------|----------------|

|---------------|---------------|---------------|---------------|
|-5-5----5-5----|-5-5----5-5----|-2-2----2-2----|-2-2----2-2----|
|------5------5-|------5------2-|------2------2-|------2------5-|
|---------------|---------------|---------------|---------------|

Verse

|---------------|---------------|-4-4----4-4----|-4-4----4-4----|
|-5-5----5-5----|-5-5----5-5--4-|------4------4-|------4------5-|
|------5------5-|------5--------|---------------|---------------|
|---------------|---------------|---------------|---------------|

|-5-5----5-5----|-5-5----5-5----|-5-5----5-5-----|-9-9-----9-9----|
|------5------5-|------5------5-|------5------10-|------10--------|
|---------------|---------------|----------------|--------------7-|
|---------------|---------------|----------------|----------------|

|---------------|---------------|----------------|----------------|
|---------------|---------------|-2-2----2-------|----------------|
|---------------|-2-2--2-2-2--2-|------2---5-3-2-|-3-3----3-3-5-3-|
|-3-3--3-3-3--5-|---------------|----------------|------3---------|

|---------------|---------------|---------------|---------------|
|---------------|---------------|---------------|---------------|
|-5-5--5-5-5--5-|-5-5--5-5-5--5-|-5-5--5-5-5--5-|-5-5--5-5-5--5-|
|---------------|---------------|---------------|---------------|

Verse

|---------------|---------------|-4-4----4-4----|-4-4----4-4----|
|-5-5----5-5----|-5-5----5-5--4-|------4------4-|------4------5-|
|------5------5-|------5--------|---------------|---------------|
|---------------|---------------|---------------|---------------|

|-5-5----5-5----|-5-5----5-5----|-5-5----5-5-----|-9-9-----9-9--7-|
|------5------5-|------5------5-|------5------10-|------10--------|
|---------------|---------------|----------------|----------------|
|---------------|---------------|----------------|----------------|

|----------------|----------------|----------------|----------------|
|-5-5----5-7-5-4-|------------4---|-2-2----2-------|----------------|
|------5---------|-2-2----2-2---2-|------2---5-3-2-|-3-3----3-3-5-3-|
|----------------|------2---------|----------------|------3---------|

|----------------|----------------|--------------|---------2----|
|-5-5----5-7-5-4-|-5-5----5-5---5-|--------------|---2--3-----2-|
|------5---------|------5-----5---|------2--3--3-|-5------------|
|----------------|----------------|-3-5----------|--------------|

Bridge

|-------------|----------|-----------|-----------|
|-5----5-5-5--|-5--------|---2----2--|---2----2--|
|-------------|----------|-----------|-----------|
|-------------|----------|-----------|-----------|

|-----------|-----------|-----------|-----------|
|---2----2--|---2----2--|-----------|-----------|
|-----------|-----------|---2----2--|---3----5--|
|-----------|-----------|-----------|-----------|

|-----------|---4----4--|-----------|-----------|
|---5----5--|-----------|---2----2--|-----------|
|-----------|-----------|-----------|---2----2--|
|-----------|-----------|-----------|-----------|

|-----------|-----------|-----------|-----------|
|---2----2--|-----------|-----------|-----------|
|-----------|---5----5--|---3----3--|---5----5--|
|-----------|-----------|-----------|-----------|

|-----------|-----------|---4----4--|---4----4--|
|---5----5--|---5----5--|-----------|-----------|
|-----------|-----------|-----------|-----------|
|-----------|-----------|-----------|-----------|

|---5----5--|---5----5--|---5----5--|---9-----9-9-|
|-----------|-----------|-----------|-------9-----|
|-----------|-----------|-----------|-------------|
|-----------|-----------|-----------|-------------|

Verse

|---------------|---------------|----------------|---------------|
|---------------|---------------|-2-2--2-2-------|---------------|
|---------------|-2-2--2-2-2--2-|----------5-3-2-|-3-3----3-3--5-|
|-3-3--3-3-3--5-|---------------|----------------|------3--------|

|---------------|----------------|--------------|-----------------|
|---------------|----------------|--------------|---------5---7---|
|-5-5--5-5-5--5-|-5-5--5-5-------|---2--3--4--4-|-5-5-7-5---5---7-|
|---------------|----------0-2-3-|-5------------|-----------------|

Ending 

||----------------|---------------|---------------|----------------||
||o-5-5----5-5----|-5-5----5-5----|-2-2----2-2----|-2-2----2-2----o||
||o------5------5-|------5------2-|------2------2-|------2------5-o||
||----------------|---------------|---------------|----------------|| til fade
            
Submit corrections

comments powered by Disqus
↑ Back to top | Elvis Presley Bass for Any Day Now. Lyrics for acoustic guitar and electric guitar. 1 Tablatures and chords are parodies/interpretations of the original songs. You may use it for private study, scholarship, research or language learning purposes only