» » »

Elvis Perkins, The Night And The Liquor Tabs (ver.1)

Artists:  A B C D E F G H I J K L M N O P Q R S T U V W X Y Z # 

The Night And The Liquor Tabs (ver.1)

Elvis Perkins Tabs
 Rating:
4.2/5 (5 votes)
The Night And The Liquor lessons Tabs too difficult? Try these video lessons and learn fast
1
                Tune a half step down

im pretty certain this is all correct. listen to the song for timing.

-----------------|
-----------------|
-----------------|
-----------------|  this is played to start the main riff at the begining
---------2-------|
--0---3-----3----|


main riff timing sometimes changes so listen to the song to get it right

-----------------------------------------------------------------------------|
----------------------------------------------------------------3------------|
--2--2--4--2--0--2--0---------------------2--2--4--7--4--2--0---4--4--4--4---|
--0--0--0--0--0--0--0-- 2--2--2-----------0--0--0--0--0---------0--0--0--0---|
--0---------------------2--2--2--------2-------------------------------------|
------------------------0--0--0--0--3---------------------------------3--3---|

 chorus

----       ----        ----        ----         ----        ----
-0--       -3--        -3--        -5--        -3--         -3--
-0--       -0--        -2--        -4--        -2--         -0--
-2--x6     -0--x6      -0--x6      -0--x3      -0--x3       -0--x12
-2--       -2--        -0--        -0--        -0--         -2--
-0--       -3--        ----        ----        ----         -3--

last time in chorus hold out first 3 chords then strum again.

thats the song leave a comment if you know of something that isn't right.
            
Submit corrections

comments powered by Disqus
↑ Back to top | Elvis Perkins Tabs for The Night And The Liquor. Lyrics for acoustic guitar and electric guitar. 1 Tablatures and chords are parodies/interpretations of the original songs. You may use it for private study, scholarship, research or language learning purposes only