» » »

Elvis Perkins, Shampoo Tabs (ver.1)

Artists:  A B C D E F G H I J K L M N O P Q R S T U V W X Y Z # 

Shampoo Tabs (ver.1)

Elvis Perkins Tabs
Rating:
5/5 (3 votes)
Shampoo lessons Tabs too difficult? Try these video lessons and learn fast
                -------------------------------------------------
Title 	: 	Shampoo
Artist	:	Elvis Perkins in Dearland
-------------------------------------------------
Awesome tune, enjoy :)
Chords not aligned to words to well as preview seems to move them, but roughly correct.
-------------------------------------------------
Capo on 2nd Fret
-------------------------------------------------

Intro

----------------------------------------------------------

-----0-0-0------0-0-0-----0-0-0-------0-0-0--|
-----0-0-0------0-0-0-----0-0-0-------0-0-0--|
-----0-0-0------0-0-0-----0-0-0-------0-0-0--|   Repeats 2 times
-2-----------2----------2----------2---------|
---------------------------------------------|
---------------------------------------------|


---------------------------------------------|
---------------------------------------------|
-----------------------------0---------------|    Repeats 2 times
-2-0----------------------2----2-0-----0--2--|
------2-----0--2--0---0-------------2--------|
---------3----------3------------------------|

----------------------------------------------------------

Em               G
sweep up, little sweeper boy

Am
It's you who's got the wig on here

Em                  G                          Am
sweep up, little sweeper boy, sweep up


Em                    G                     Am
yellow is the color of my true love's crossbow

Em                    G              D
yellow is the color of the sun

Em                         G
and black is the color of

Am
a strangled rainbow

Em               G	      Am
that's the color of my loss

Em                   G                       Am
black is the color of my true love's arrow

Em 	        G	   Am
that's the color of human blood


Em		G        Am
you got a shot of shampoo

Em                 G                Am
though it was made thirty years ago
Em	        G        Am
you got a shot of shampoo
Em                       G                Am
though you were made twenty years ago

----------

Harmonica Solo

----------

Em 	           G
speak up, little sweeper boy

Am
they are hard of hearing

Em                 G                 Am
anything that anyone has to say

o they say

Em 		    G			Am
yellow is the color of my true love's crossbow

Em		    G		   D
yellow is the color of the sun

Em                G
black is the color of

Am
a strangled rainbow

Em     G             D
the color of my loss
Em                     G                     Am
and black is the color of my true love's arrow

Em             G             D
that's the color of my blood
            

comments powered by Disqus
↑ Back to top | Elvis Perkins Tabs for Shampoo. Lyrics for acoustic guitar and electric guitar. Tablatures and chords are parodies/interpretations of the original songs. You may use it for private study, scholarship, research or language learning purposes only