>
 >
The Scythe 1

The Scythe 1 Guitar Tabs

Elvenking - The Scythe 1 chords, tabs, tablatures, lyrics

Guitar lessons | Add/correct | Request | Top 50 tabs Artists:  A B C D E F G H I J K L M N O P Q R S T U V W X Y Z 0-9

The Scythe 1 Guitar Tabs – Elvenking

CD, Sheet music, Poster

Do you like The Scythe 1? Share with your friends now
TabsTabs v2
the full version of The Scythe, although no solo
and it was hard to tab the timing of the notes
so just play with them abit and listen to the song
with one earphone and you'll get it :)

Intro
E|------------------------------------------|
B|------------------------------------------|
G|--10-9-0000-10-9-0000-10-9-0000-10-00-12--|
D|------------------------------------------|
A|------------------------------------------|
D|------------------------------------------|

E|-----------------------------------------------|
B|-----------------------------------------------|
G|--10-9-0000-10-9-0000-9b--9-10-14-12p10-12-14--|
D|-----------------------------------------------|
A|-----------------------------------------------|
D|-----------------------------------------------|

E|------------------------------------------|
B|------------------------------------------|
G|--10-9-0000-10-9-0000-10-9-0000-10-00-12--|
D|------------------------------------------|
A|------------------------------------------|
D|------------------------------------------|

E|-----------------------------------------------|
B|-----------------------------------------------|
G|--10-9-0000-10-9-0000-9b--9-10-14-12p10-12-14--|
D|-----------------------------------------------|
A|-----------------------------------------------|
D|-----------------------------------------------|

E|----------------------------------|
B|----------------------------------|
G|--7-5-7-----------5-3-5-----------|
D|--7-5-7--7p5------5-3-5--5p3------|x4
A|--5-3-5------7p5--3-1-3------5p3--|
D|----------------------------------|

Verse
E|----------------------------------------------|
B|----------------------------------------------|
G|---------3-3--2-2--3-3-----------3-3--2--3----|
D|--00000--3-3--2-2--3-3-3--00000--3-3--2--3-0--|
A|--00000--1-1-------1-1-3--00000--1-1-----1-0--|
D|--00000----------------3--00000------------0--|

E|----------------------------------------------|
B|----------------------------------------------|
G|---------3-3--2-2--3-3-----------3-3--2--3-5--|
D|--00000--3-3--2-2--3-3-3--00000--3-3--2--3-5--|
A|--00000--1-1-------1-1-3--00000--1-1-----1-3--|
D|--00000----------------3--00000---------------|


E|------------------------------------------|
B|------------------------------------------|
G|--10-9-0000-10-9-0000-10-9-0000-10-00-12--|
D|------------------------------------------|
A|------------------------------------------|
D|------------------------------------------|

E|-----------------------------------------------|
B|-----------------------------------------------|
G|--10-9-0000-10-9-0000-9b--9-10-14-12p10-12-14--|
D|-----------------------------------------------|
A|-----------------------------------------------|
D|-----------------------------------------------|

Pre-Chorus
E|-----------------------------------------|
B|-----------------------------------------|
G|----3-3--3-2--5-5---------------3--------|
D|----3-3--3-2--3-5--0-0-0~--0-0--3--3--0--|
A|----1-1--1----3-3--0-0-0~--0-0--1--3--0--|
D|-------------------0-0-0~--0-0-----3--0--|

E|----------------------------------------|
B|----------------------------------------|
G|--3-3--3-2--5-5---------------3--2--5~--|
D|--3-3--3-2--3-5--0-0-0~--0-0--3--2--5~--|
A|--1-1--1----3-3--0-0-0~--0-0--1-----3~--|
D|-----------------0-0-0~--0-0------------|


Chorus
E|----------------------------------------|
B|----------------------------------------|
G|--2--5~-----2~--3--5~-------------------|
D|--2--5~--0--2~--3--5~--0~--7-7--5-3-----|
A|-----3~--0------1--3~--0~--7-7--5-3-----|
D|---------0-------------0~--7-7--5-3-----|


Verse 2
E|------------------------------------------|
B|------------------------------------------|
G|--10-9-0000-10-9-0000-10-9-0000-10-00-12--|
D|------------------------------------------|
A|------------------------------------------|
D|------------------------------------------|

E|-----------------------------------------------|
B|-----------------------------------------------|
G|--10-9-0000-10-9-0000-9b--9-10-14-12p10-12-14--|
D|-----------------------------------------------|
A|-----------------------------------------------|
D|-----------------------------------------------|

E|---------------------------------------------|
B|---------------------------------------------|
G|---------3-3--2-2---------------3-3--2--3----|
D|--00000--3-3--2-2--3-3-0-00000--3-3--2--3-0--|
A|--00000--1-1-------3-3-0-00000--1-1-----1-0--|
D|--00000------------3-3-0-00000------------0--|

Come, taste blood, rust and terror! 3:30
E|------------------------------------------------------------|
B|------------------------------------------------------------|
G|--------------------------3-3-2-2--------------3-3--3--5-5--|
D|--000000000000000000000---3-3-2-2-3-3-2-00000--3-3--3--5-5--|
A|--000000000000000000000---1-1-----3-3-2-00000--1-1--1--3-3--|
D|--000000000000000000000-----------3-3-2-00000---------------|

Mother of desperation
Death of thunder and rain
E|-------------------------------------------|
B|-------------------------------------------|
G|-------------------------------------------|
D|--------3---2---3-------3p2---------3p2----|
A|----------------------------3-----------3--|
D|--0-0-0---0---0---0-0-0-------0-0-0--------|

E|----------------------------------------------------------------------|
B|----------------------------------------------------------------------|
G|-------------------3-3-3--5-5-5--3-3-3----------------------3-3-3--5--|
D|--------3---2---3--3-3-3--5-5-5--3-3-3-3-3-3-0----3---2---3-3-3-3--5--|
A|-------------------1-1-1--3-3-3--1-1-1-3-3-3-0--------------1-1-1--3--|
D|--0-0-0---0---0------------------------3-3-3-0--0---0---0-------------|

Pre-Chorus
E|-----------------------------------------|
B|-----------------------------------------|
G|----3-3--3-2--5-5---------------3--------|
D|----3-3--3-2--3-5--0-0-0~--0-0--3--3--0--|
A|----1-1--1----3-3--0-0-0~--0-0--1--3--0--|
D|-------------------0-0-0~--0-0-----3--0--|

E|----------------------------------------|
B|----------------------------------------|
G|--3-3--3-2--5-5---------------3--2--5~--|
D|--3-3--3-2--3-5--0-0-0~--0-0--3--2--5~--|
A|--1-1--1----3-3--0-0-0~--0-0--1-----3~--|
D|-----------------0-0-0~--0-0------------|

Chorus
E|----------------------------------------|
B|----------------------------------------|
G|--2--5~-----2~--3--5~-------------------|
D|--2--5~--0--2~--3--5~--0~--7-7--5-3-----|
A|-----3~--0------1--3~--0~--7-7--5-3-----|
D|---------0-------------0~--7-7--5-3-----|

E|------------------------------------------------------|
B|------------------------------------------------------|
G|-----5---------------------------------3~--5~---------|
D|--3--5--0------------------------------3~--5~--0~--3--|
A|--3--3--0------------------------------1~--3~--0~--3--|
D|--3-----0--0-0-000-0-0-000-0-0-000-0-0---------0~--3--|

Breakdown
E|-------------------------------------------------------|
B|----------------------------------------5-5------------|
G|----------------3-3-3-3------------3-3--3-3--3-3--5-5--|
D|--2--2-2-2-3-2--3-3-3-3--2--2-2-2--3-3-------3-3--5-5--|
A|--2--2-2-2-3-2--1-1-1-1--2--2-2-2--1-1-------1-1--3-3--|
D|--2--2-2-2-3-2-----------2--2-2-2----------------------|

solo Rhythm
E|-------------------------------------------------------|
B|----------------------------------------5-5------------|
G|----------------3-3-3-3------------3-3--3-3--3-3--5-5--|
D|--2--2-2-2-3-2--3-3-3-3--2--2-2-2--3-3-------3-3--5-5--|
A|--2--2-2-2-3-2--1-1-1-1--2--2-2-2--1-1-------1-1--3-3--|x2
D|--2--2-2-2-3-2-----------2--2-2-2----------------------|

Palm muting
E|------------------------------------------------|
B|------------------------------------------------|
G|--5---------------------------------------------|
D|--5--------7--5--------5--3--------3--5---------|
A|--3--3-3-3-7--5--------5--3--------3--5---------|
D|-----------7--5--5-5-5-5--3--3-3-3-3--5--5-5-5--|

E|-------------------------------------------------|
B|-------------------------------------------------|
G|----5--------------------------------------------|
D|--5-5--------7--5--------5--3--------3--5-5-5-5--|
A|--5-3--3-3-3-7--5--------5--3--------3--5-5-5-5--|
D|--5----------7--5--5-5-5-5--3--3-3-3-3--5-5-5-5--|

E|------------------------------------------------|
B|------------------------------------------------|
G|--------------3--------3------------------------|
D|--1--------1--3--------3--6--------6--8---------|
A|--1--------1--1--3-3-3-1--6--------6--8---------|
D|--1--1-1-1-1--------------6--6-6-6-6--8--8-8-8--|

E|--------------------------------------------|
B|--------------------------------------------|
G|--3-------------3--------3------------------|
D|--3-1--------1--3--------3--6--------6--8~--|
A|--1-1--------1--1--3-3-3-1--6--------6--8~--|
D|----1--1-1-1-1--------------6--6-6-6-6--8~--|
End of Solo
 
E|----------------------------------|
B|----------------------------------|
G|--7-5-7-----------5-3-5-----------|
D|--7-5-7--7p5------5-3-5--5p3------|x3
A|--5-3-5------7p5--3-1-3------5p3--|
D|----------------------------------|

E|---------------------|
B|---------------------|
G|--7-5-7-----------5--|
D|--7-5-7--7p5------5--|
A|--5-3-5------7p5--3--|
D|---------------------|

Chorus
E|----------------------------------------|
B|----------------------------------------|
G|--2--5~-----2~--3--5~-------------------|
D|--2--5~--0--2~--3--5~--0~--7-7--5-3-----|
A|-----3~--0------1--3~--0~--7-7--5-3-----|
D|---------0-------------0~--7-7--5-3-----|

E|------------------------------------------------------|
B|------------------------------------------------------|
G|-----5---------------------------------3~--5~---------|
D|--3--5--0------------------------------3~--5~--0~--3--|
A|--3--3--0------------------------------1~--3~--0~--3--|
D|--3-----0--0-0-000-0-0-000-0-0-000-0-0---------0~--3--|

Fade out with the Chorus...
E|----------------------------------------|
B|----------------------------------------|
G|--2--5~-----2~--3--5~-------------------|
D|--2--5~--0--2~--3--5~--0~--7-7--5-3-----|
A|-----3~--0------1--3~--0~--7-7--5-3-----|
D|---------0-------------0~--7-7--5-3-----|

I also fixed up some of my mistakes as well





Comments


Popular Elvenking tabs & chords
White Willow Bass Tabs
Skywards Chords
Through Wolfs Eyes Chords
Lost Hill Of Memories Intro Tabs
Oak Woods Bestowed Tabs
On The Morning Dew Tabs
Petalstorm Intro Tabs
Skywards Tabs
The Scythe Tabs
Trows Kind Tabs


Song lyrics



↑ Back to top | Tablatures and chords are parodies/interpretations of the original songs. You may use it for private study, scholarship, research or language learning purposes only
© 2014 AZChords.com Contact us | Privacy policy | DMCA | Add/correct tabs | Request tabs | Top 50 tabs