» » »

Elvenking, The Scythe Tabs (ver.1)

Artists:  A B C D E F G H I J K L M N O P Q R S T U V W X Y Z # 

The Scythe Tabs (ver.1)

Elvenking Tabs
 Rating:
4/5 (4 votes)
The Scythe lessons Tabs too difficult? Try these video lessons and learn fast
                was more tricky to figure out then others and haven't got it all yet
but enjoy whats here :P

Intro
E|------------------------------------------|
B|------------------------------------------|
G|--10-9-0000-10-9-0000-10-9-0000-10-00-12--|
D|------------------------------------------|
A|------------------------------------------|
D|------------------------------------------|

E|----------------------------------------------|
B|----------------------------------------------|
G|--10-9-0000-10-9-0000-9--9-10-14-12p10-12-14--|
D|----------------------------------------------|
A|----------------------------------------------|
D|----------------------------------------------|

E|------------------------------------------|
B|------------------------------------------|
G|--10-9-0000-10-9-0000-10-9-0000-10-00-12--|
D|------------------------------------------|
A|------------------------------------------|
D|------------------------------------------|

E----------------------------------------------|
B----------------------------------------------|
G--10-9-0000-10-9-0000-9--9-10-14-12p10-12-14--|
D----------------------------------------------|
A----------------------------------------------|
D----------------------------------------------|

E|----------------------------------|
B|----------------------------------|
G|--7-5-7-----------5-3-5-----------|
D|--7-5-7--7p5------5-3-5--5p3------|x4
A|--5-3-5------7p5--3-1-3------5p3--|
D|----------------------------------|

Verse
E|--------------------------------------------|
B|--------------------------------------------|
G|---------3-3--2-2--3-3---------3-3--2--3----|
D|--00000--3-3--2-2--3-3--00000--3-3--2--3-0--|x3
A|--00000--1-1-------1-1--00000--1-1-----1-0--|
D|--00000-----------------00000------------0--|

E|------------------------------------------|
B|------------------------------------------|
G|--10-9-0000-10-9-0000-10-9-0000-10-00-12--|
D|------------------------------------------|
A|------------------------------------------|
D|------------------------------------------|

E|----------------------------------------------|
B|----------------------------------------------|
G|--10-9-0000-10-9-0000-9--9-10-14-12p10-12-14--|
D|----------------------------------------------|
A|----------------------------------------------|
D|----------------------------------------------|

E|-------------------------------------|
B|-------------------------------------|
G|--3-3--3-2--5-5----------------------|
D|--3-3--3-2--3-5--0-0-0~--0-0--3--2---|
A|--1-1--1----3-3--0-0-0~--0-0--3--2---|
D|-----------------0-0-0~--0-0--1------|

E|----------------------------------------|
B|----------------------------------------|
G|--3-3--3-2--5-5---------------3--2--5~--|
D|--3-3--3-2--3-5--0-0-0~--0-0--3--2--5~--|
A|--1-1--1----3-3--0-0-0~--0-0--1-----3~--|
D|-----------------0-0-0~--0-0------------|

Chorus
E|------------------------------------|
B|------------------------------------|
G|--2--5~-----2~--3--5~------2-2-2-2--|
D|--2--5~--0--2~--3--5~--0~--2-2-2-2--|
A|-----3~--0------1--3~--0~-----------|
D|---------0-------------0~-----------|

Verse 2
E|------------------------------------------|
B|------------------------------------------|
G|--10-9-0000-10-9-0000-10-9-0000-10-00-12--|
D|------------------------------------------|
A|------------------------------------------|
D|------------------------------------------|

E|----------------------------------------------|
B|----------------------------------------------|
G|--10-9-0000-10-9-0000-9--9-10-14-12p10-12-14--|
D|----------------------------------------------|
A|----------------------------------------------|
D|----------------------------------------------|

E|--------------------------------------------|
B|--------------------------------------------|
G|---------3-3--2-2--3-3---------3-3--2--3----|
D|--00000--3-3--2-2--3-3--00000--3-3--2--3-0--|
A|--00000--1-1-------1-1--00000--1-1-----1-0--|
D|--00000-----------------00000------------0--|

E|---------------------------------------------|
B|---------------------------------------------|
G|--------------------------------3-3--3--5-5--|
D|--000000000000000000000000000---3-3--3--5-5--|
A|--000000000000000000000000000---1-1--1--3-3--|
D|--000000000000000000000000000----------------|
            
Submit corrections

comments powered by Disqus
↑ Back to top | Elvenking Tabs for The Scythe. Lyrics for acoustic guitar and electric guitar. Tablatures and chords are parodies/interpretations of the original songs. You may use it for private study, scholarship, research or language learning purposes only