» » »

El Tri, Triste Cancion Bass tabs (ver.1)

Artists:  A B C D E F G H I J K L M N O P Q R S T U V W X Y Z # 

Triste Cancion Bass tabs (ver.1)

El Tri Tabs
Rating:
0/5 (0 votes)
Hard to play? Try these video lessons and learn fast.
                g|------------------------------|-----------------------------------|
d|------------------------------|-----------------------------------|
a|--5-5---------3-5-5-------3--5|--3-3---------1-3-3------1-3-------|
e|-------3-4-5---------3-5------|-------1-2-3---------1-3-----------|


g|------------------------------|-----------------------------------|
d|------------------------------|-----------------------------------|
a|--5-5---------3-5-5-------3--5|-----------------------------------|
e|-------3-4-5---------3-5------|--5-5-5-5-5-5-5-5-5-5-5-5-5-5-5-5--|

g|------------------------------|-----------------------------------|
d|------------------------------|-----------------------------------|
a|--5-5---------3-5-5-------3--5|--3-3---------1-3-3------1-3-------|
e|-------3-4-5---------3-5------|-------1-2-3---------1-3-----------|

g|------------------------------------------------------------------|
d|------------------------------------------------------------------|
a|------------------------------------------------------------------|
e|-6--6-6--6-6--5-5--5--5-5-----------------------------------------|



g|------------------------------|-----------------------------------|
d|------------------------------|-----------------------------------|
a|--5-5---------3-5-5-------3--5|-----------------------------------|
e|-------3-4-5---------3-5------|-6-6-6--6-6--5-5-5--5-5-5----------|



g|------------------------------------------------------------------|
d|------------------------------------------------------------------|
a|--5-5----------3-5------------------------------------------------|
e|--------3-4-5-----------------------------------------------------|

g|------------------------------|-----------------------------------|
d|------------------------------|-----------------------------------|
a|--5-5---------3-5-5-------3--5|--3-3---------1-3-3------1-3-------|
e|-------3-4-5---------3-5------|-------1-2-3---------1-3-----------|


g|------------------------------|-----------------------------------|
d|------------------------------|-----------------------------------|
a|--5-5---------3-5-5-------3--5|-----------------------------------|
e|-------3-4-5---------3-5------|--5-5-5-5-5-5-5-5-5-5-5-5-5-5-5-5--|

g|------------------------------|-----------------------------------|
d|------------------------------|-----------------------------------|
a|--5-5---------3-5-5-------3--5|--3-3---------1-3-3------1-3-------|
e|-------3-4-5---------3-5------|-------1-2-3---------1-3-----------|

g|------------------------------------------------------------------|
d|------------------------------------------------------------------|
a|------------------------------------------------------------------|
e|-6--6-6--6-6--5-5--5--5-5-----------------------------------------|



g|------------------------------|-----------------------------------|
d|------------------------------|-----------------------------------|
a|--5-5---------3-5-5-------3--5|-----------------------------------|
e|-------3-4-5---------3-5------|-6-6-6--6-6--5-5-5--5-5-5----------|



g|------------------------------------------------------------------|
d|------------------------------------------------------------------|
a|--5-5----------3-5------------------------------------------------|
e|--------3-4-5-----------------------------------------------------|
            

comments powered by Disqus
↑ Back to top | El Tri Bass for Triste Cancion. Lyrics for acoustic guitar and electric guitar. Tablatures and chords are parodies/interpretations of the original songs. You may use it for private study, scholarship, research or language learning purposes only