>
 >
K10

K10 Guitar Tabs

El Ten Eleven - K10 chords, tabs, tablatures, lyrics

Guitar lessons | Add/correct | Request | Top 50 tabs Artists:  A B C D E F G H I J K L M N O P Q R S T U V W X Y Z 0-9

K10 Guitar Tabs – El Ten Eleven

CD, Sheet music, Poster

Do you like K10? Share with your friends now
Bass TabsTabs
K10 tab

    Fifth song of El Ten Elevens Third electronic dance-a-riffic album, "These Promises 
Are Being Videotaped."

| /  slide up
| \  slide down
| h  hammer-on
| p  pull-off
| ~  vibrato
| +  harmonic
| x  Mute note


Fretless bass tuning: D-A-D-A


For this song, some Distortion, an Octave pedal and a bit of Delay/Reverb is used.

First awesome riff. Distortion


A|----------------------------------------------------------------------------------|
D|---0---0---0x--0x---0h7\-3---0---0---0x--0x---0-7\-3---0---0---0x--0x---0h7\-3----|
A|----------------------------------------------------------------------------------|
D|----------------------------------------------------------------------------------|

A|-------------------------------------------------------------------------------------------|
D|---0---0---0x--0x---0h7\-5--5---5--x-x-x-x-0---5--5---5--x-x-x-x-0---5--5---5--x-x-x-x-0---|
A|-------------------------------------------------------------------------------------------|
D|-------------------------------------------------------------------------------------------|

A|-----------------------|
D|---5--5---5--5---7~----|
A|-----------------------|
D|-----------------------|

Second Loop is set an Octave up

A|---5+--5+--5+--5+5+5+5+5+--| x8
D|---------------------------|
A|---------------------------|
D|---------------------------|

Third loop is also set and OCtave up

A|---9--9--9--9-9-9-9-12--12--12--12-12-12-12---|  x4
D|----------------------------------------------|
A|----------------------------------------------|
D|----------------------------------------------|

Fourth is Octave up!


A|---21--21--21--21-21-21-21-19--19--19--19-19-19-19-17--17-|
D|----------------------------------------------------------|
A|----------------------------------------------------------| ---|
D|----------------------------------------------------------|    |
                                                                 | x2
-17--17-17-17-17-16--16--16--16-16-16-16---|                     |
-------------------------------------------|  -------------------|
-------------------------------------------|
-------------------------------------------|

Chorus-First Loop. Struming is tricky for this loop. Still Octave up.


A|---9-9-9h12---9--9---9h12-----|    x4
D|------------------------------|
A|------------------------------|
D|------------------------------|

I think he plays this riff in a different way but this sounds exactly like it.

A|-------------------------------------------------------------------------------------|
D|-------------------------------------------------------------------------------------|
A|-------------------------------------------------------------------------------------|
D|---9--9---9--9---9--9-10--10---10--10---10--10-4--4---4--4---4--4-5--5---5--5--5-----|

second loop same riff, other D string. Again, I think Kristian does it differently.


A|-------------------------------------------------------------------------------------|
D|---9--9---9--9---9--9-10--10---10--10---10--10-4--4---4--4---4--4-5--5---5--5--5-----|
A|-------------------------------------------------------------------------------------|
D|-------------------------------------------------------------------------------------|

Third loop. This where that delay reverb comes in. An Octave up

A|---21-----------21\20/22---------------(24)----16-----------16\15/17-----------------|
D|-------------------------------------------------------------------------------------|
A|-------------------------------------------------------------------------------------|
D|-------------------------------------------------------------------------------------|

Fill line?( Play this before you pause and do the fill)

A|---0h12--0-0h12--0-0h12--0---|
D|-----------------------------|
A|-----------------------------|
D|-----------------------------|

Then there are those pause fill

A|---12-12---14/17-0-0---|
D|-----------------------|
A|-----------------------|
D|-----------------------|

Back to Chorus and second fill

A|---12-12---14/17-0-0---12-12---14/17-0-0---|
D|-------------------------------------------|
A|-------------------------------------------|
D|-------------------------------------------|

Back to Chorus and third and final fill

A|---12-12---14/17-0-0-----------------------12-12---14/17-0-0---|
D|---------------------------------------------------------------|
A|-----------------------12-12---14/17-0-0-----------------------|
D|---------------------------------------------------------------|

[pause]

Outro

First loop

A|--------------------------------------------|
D|--------------------------------------------|
A|--------------------------------------------|
D|---9-9---9-9--9---9-9--9---9-9--9---9-9--9--|

Second loop

A|---7+---------4+-------5+-------7+----|
D|--------------------------------------|
A|--------------------------------------|
D|--------------------------------------|

Third loop

A|---4+---------5+-------7+-------------|
D|--------------------------------7+----|
A|--------------------------------------|
D|--------------------------------------|

End on the second loop/riff

A|---7+---------4+-------5+-------7+\---| x2
D|--------------------------------------|
A|--------------------------------------|
D|--------------------------------------|


Hope it wasn't too confusing, have fun and enjoy

-Jaysunn!





Comments


Popular El Ten Eleven tabs & chords
Hot Cakes Bass Tabs
I Like Van Halen Because My Sister Says They Are Cool Bass Tabs
K10 Bass Tabs
Ya No Bass Tabs
Connie Tabs
Falling Tabs
My Only Swerving Tabs
My Only Swerving 1 Tabs


Song lyrics



↑ Back to top | Tablatures and chords are parodies/interpretations of the original songs. You may use it for private study, scholarship, research or language learning purposes only
© 2014 AZChords.com Contact us | Privacy policy | DMCA | Add/correct tabs | Request tabs | Top 50 tabs