» » »

El Perro Del Mar, I Cant Talk About It Bass tabs (ver.1)

Artists:  A B C D E F G H I J K L M N O P Q R S T U V W X Y Z # 

I Cant Talk About It Bass tabs (ver.1)

El Perro Del Mar Tabs
 Rating:
4/5 (4 votes)
I Cant Talk About It lessons Tabs too difficult? Try these video lessons and learn fast
                G|---------------------------------------------|
D|--77---77---77---77---44---44---44---44------|
A|-7---7----7----7----4----4----4----4---------|
E|---------------------------------------------|

trough whole song exept the ending:

G|--------------------------------------|
D|-7-7-7-7-7-7-7-7-4-4-4-4-4-4-4-4------|
A|--------------------------------------|
E|--------------------------------------|

end on
G|--------------------------------------|
D|-7------------------------------------|
A|--------------------------------------|
E|--------------------------------------|
            
Submit corrections

comments powered by Disqus
↑ Back to top | El Perro Del Mar Bass for I Cant Talk About It. Lyrics for acoustic guitar and electric guitar. Tablatures and chords are parodies/interpretations of the original songs. You may use it for private study, scholarship, research or language learning purposes only