» » »

Vacaciones Bass tabs (ver.1)

Artists:  A B C D E F G H I J K L M N O P Q R S T U V W X Y Z # 

Vacaciones Bass tabs (ver.1)

El Otro Yo
Rating:
0/5 (0 votes)

Hard to play? Try these video lessons and learn fast.
                ++++++++++++++++++++++++++
| El Otro Yo- Vacaciones |
++++++++++++++++++++++++++


"Te lo digo y te lo repito, demasiado para mi..."

Tuning: EADG


Intro
1.
G|-------------------------------------------------|
D|-------------------------------------------------|
A|----------1-----------1-----------1-----------1--|
E|-3-111-31--1-3-111-31--1-3-111-31--1-3-111-31--1-|

2.
G|------------------------------------------|
D|------------------------------------------|
A|------------------------------------------|
E|-3333-44-6-3333-44-6-3333-44-6-3333-44-6--|

3.
G|-------------------------------------------------|
D|-------------------------------------------------|
A|----------1-----------1-----------1-----------1--|
E|-3-111-31--1-3-111-31--1-3-111-31--1-3-111-31--1-|

4.
G|------------------------------------------|
D|------------------------------------------|
A|------------------------------------------|
E|-3333-44-6-3333-44-6-3333-44-6-3333-44-6--|

5.
G|------------------------------------------|
D|------------------------------------------|
A|-6666----6666----6666----6666-686---------|--x2
E|-----4444----6666----4444-----------------|

Verse
"Dos semanas en el este..."
6.
G|------------------------------------------|
D|------------------------------------------|
A|-6666----6666----6666----6666-686---------|--x2
E|-----4444----6666----4444-----------------|

Chorus
"No quiero estar en este lugar..."
7.
G|------------------------------------------|
D|------------------------------------------|
A|-6666----6666----6666----6666-------------|--x2
E|-----4444----6666----4444----6666---------|

Outro
8.
G|---3-5---3-2320----3-5---3-2320-----------|
D|-33----5---------33----5------------------|
A|------------------------------------------|
E|------------------------------------------|


Lyrics:


Dos semanas en el Este, demasiado para mi

No quiero estar en este lugar
Yo quiero estar en un lugar mejor que este mañana

Dos semanas con los pescados, dos semanas en el mar
Dos semanas encerrado, dos semanas en el mar
Vacaciones, vacaciones, vacaciones en el mar

Te lo digo y te lo repito, demasiado para mi



+++++++++++++++++++++++++++++++++
| RaiLeff                       |
+++++++++++++++++++++++++++++++++
            
Hard to play? Try these video lessons and learn fast. | Correct




comments powered by Disqus
↑ Back to top | Tablatures and chords are parodies/interpretations of the original songs. You may use it for private study, scholarship, research or language learning purposes only